I Feel So Good Today (Acordes)

Charlie Brown Jr.

Subida por Anyvillegas

Compartir


Imprimir FAQ
+A
-A

Texto

Desplazamiento

Transportador

Color de Fondo

Archivos

-A
+A
E|---------------------------------------------------------------------------------------------
B|---------------------------------------------------------------------------------------------|
G|-----------------8--7----------------------------------------------------------------------
D|-------------10--------10-10-10-10--10s12--10--8--6--8s10--6-6-6--8--6--4---|
A|----------8-----------------------------------------------------------------------------8-- |
E|--------------------------------------------------------------------------------------------- |
 
E|---------------------------------------------------------------------------------------------|
B|---------------------------------------------------------------------------------------------|
G|-------------10-----------------6----------------------------------------------------------
D|--------10-----------------6-------------------8-----------------4--------------6--------
A|---8-------------------4--------------------8-----------------4--------------6------------
E|-----------------------------------------6----------------2---------------4----------------|
 
(  F  Db  Bb  Gb  Ab ) 
 
F       Db     Bb      Gb
I FEEL SO GOOD TODAY 
 
F                                 Db
QUE BOM OLHAR PARA O LADO E ENCONTRAR VOCÊ 
Bb                     Gb
DEPOIS DE TANTAS CHANCES PERDIDAS    
F                      Db
QUERO ESPERAR PELO AMANHECER 
   Bb                      Gb
QUERO VER O SOL REFLETIR EM VOCÊ 
 
   Db       Ab        F  ( Bb  Ab )
BASTA EU OLHAR PRA VOCÊ  
  Db            Ab   F  ( Bb  Ab )
FICA TUDO EM EVIDÊNCIA 
 
F       Db       Bb    Gb
I FEEL SO GOOD TODAY 
  
F                   Db
CORPOS LIVRES,MENTES PERDIDAS 
       Bb                   Gb
GENTE QUE AINDA SONHA COM UMA NOVA VIDA 
F                       Db
TUDO É SIMPLES,CALMO VISTO DE CIMA 
    Bb                        Gb
O MUNDO É GRANDE MAIS É SÓ UMA ILHA 
 
Db                                   Ab                     F  ( Bb  Ab )
MAIS O QUE ME INTERESSA É VOCÊ
Db                                   Ab               F   ( Bb  Ab )
TEMOS A NOSSA FREQUÊNCIA
 
F       Db              Bb              Gb
TENTE ENTENDER...TENTE ME FAZER ENTENDER 
F         Db                      Bb    Gb
QUERO NUM DIA MAIS LINDO ESTAR AO SEU LADO

Video Clip de I Feel So Good Today


ACORDES PARA GUITARRA

PIANO UKELELE
F
Db
Bb
Gb
Ab


TOP 20: Las más tocadas de Charlie Brown Jr.


Acordes

Cerrar
F
Db
Bb
Gb
Ab

10.41

x

198