Instrumental Chorão (Acordes)

Charlie Brown Jr.

Subida por Coopeland

Compartir


Imprimir FAQ
+A
-A

Texto

Desplazamiento

Transportador

Color de Fondo

Archivos

-A
+A
Notas: D5 C#5 B5 A5 G#5 F#m5 Em B5

Riff#1

e|------------------------------------------|
B|------------------------------------------|
G|-7-7-7-7/6/4---------------------4-4-4-4--|(4X)
D|-7-7-7-7/6/4-7-7-7-7/6/4/2-2-2-2-4-4-4-4--|
A|-5-5-5-5/4/2-7-7-7-7/6/4/2-2-2-2-2-2-2-2--|
E|-------------5-5-5-5/4/2/0-0-0-0----------|

Riff#2

e|----------------------|
B|-------------8-8-8-8--|
G|-9-9/4-4/5-5-7-7-7-7--|(4X)
D|-9-9/4-4/5-5-5-5-5-5--|
A|-7-7/X-2/3-3----------|
E|----------------------|

e|------------------------------------------|
B|------------------------------------------|
G|-7-7-7-7/6/4---------------------4-4-4-4--|
D|-7-7-7-7/6/4-7-7-7-7/6/4/2-2-2-2-4-4-4-4--|
A|-5-5-5-5/4/2-7-7-7-7/6/4/2-2-2-2-2-2-2-2--|
E|-------------5-5-5-5/4/2/0-0-0-0----------|

Riff#1
Riff#2
Riff#1(final)

Video Clip de Instrumental Chorão


ACORDES PARA GUITARRA

PIANO UKELELE


TOP 20: Las más tocadas de Charlie Brown Jr.


Acordes

Cerrar

10.07

x

157