Compartir


Imprimir FAQ
+A
-A

Texto

Desplazamiento

Transportador

Color de Fondo

Archivos

-A
+A
Aqui vai a cifra dessa musica, Charlie Brown Jr. na veia dos irmao, uhul!!!! |_BDA_|
E-----------------------------------------------------|
B-----------------------------------------------------|
G--10-10-10-10-12-10-08--08-10-10-10-10-08-07-08-10---|4x
D-----------------------------------------------------|
A--08-08-08-08-10-08-06--06-08-08-08-08-06-05-06-08---|
E-----------------------------------------------------|
E-------------------------|
B-------------------------|
G-10-----8-----10---------|4x
D-10-----8-----10---------|
A-08-----6-----08---------|
E-------------------------|

E--------------|
B--------------|
G--------------|4x
D--6----8------|
A--6----8------|
E--4----6------|

E-------------------------|
B-------------------------|
G-10-----8-----10---------|4x
D-10-----8-----10---------|
A-08-----6-----08---------|
E-------------------------|

E--------------|
B--------------|
G--------------|8x
D--6----8------|
A--6----8------|
E--4----6------|

E-----------------------------------------------------|
B-----------------------------------------------------|
G--10-10-10-10-12-10-08--08-10-10-10-10-08-07-08-10---|4x
D-----------------------------------------------------|
A--08-08-08-08-10-08-06--06-08-08-08-08-06-05-06-08---|
E-----------------------------------------------------|
E---------------|
B---------------|
G--10-----------|4x
D-----------6---|
A--08-------6---|
E-----------4---|

E-----------------------------------------------------|
B-----------------------------------------------------|
G--10-10-10-10-12-10-08--08-10-10-10-10-08-07-08-10---|4x
D-----------------------------------------------------|
A--08-08-08-08-10-08-06--06-08-08-08-08-06-05-06-08---|
E-----------------------------------------------------|
E-------------------------|
B-------------------------|
G-10-----8-----10---------|4x
D-10-----8-----10---------|
A-08-----6-----08---------|
E-------------------------|

E--------------|
B--------------|
G--------------|8x
D--6----8------|
A--6----8------|
E--4----6------|

E-----------------------------------------------------|
B-----------------------------------------------------|
G--10-10-10-10-12-10-08--08-10-10-10-10-08-07-08-10---|4x
D-----------------------------------------------------|
A--08-08-08-08-10-08-06--06-08-08-08-08-06-05-06-08---|
E-----------------------------------------------------|

HERRAMIENTAS ACORDESWEB:


LETRA DE LA CANCIÓN:

Ver la letra sola (sin acordes)

OTRAS VERSIONES DE LA MISMA CANCIÓN:

Ver. 2 Ver. 3 Ver. 4 Ver. 5 Ver. 6

DESCARGAR PDF / IMPRIMIR CANCIÓN



ACORDES PARA GUITARRA

PIANO UKELELE


TOP 20: Las más tocadas de Charlie Brown Jr.


Acordes

Cerrar

21.30


176