Compartir


Imprimir FAQ
+A
-A

Texto

Desplazamiento

Transportador

Color de Fondo

Archivos

-A
+A
(intro)

G|------11-11-9-11-16----------------
D|--------------------------9-11-9---
A|-0/9-------------------------------
E|-----------------------------------

(base)
G|-------------     
D|--------4----
A|-------------
E|-2-xx-----2--

G|-------------
D|--------4-5--
A|-------------
E|-2-xx--------

(ponte)
G|--6---4---7---6----4---2-
D|-------------------------
A|-4--2---5---4----2-------
E|-------------------------

Video Clip de Tarja Preta


ACORDES PARA GUITARRA

PIANO UKELELE


TOP 20: Las más tocadas de Charlie Brown Jr.


Acordes

Cerrar

17.12

x

37