Compartir


Imprimir FAQ
+A
-A

Texto

Desplazamiento

Transportador

Color de Fondo

Archivos

-A
+A
[Intro] D9  E9
        F#m  A9
        F#m  A9
        F#m  A9
        F#m  A9
        F#m  A9
        F#m  A9
        D9  A9  E  F#m  D  A9

E|---------------------|
B|---------------------|
G|---------------------|
D|---------------------|
A|---------------------|
E|--5-7-7--------------|

F#             A9
O bom é ver o que
 Se faz, mas
F#                A9
Ela gosta de Transar
 no escuro
F#                A9
No escuro a coisa ferve
       F#
 Mais,   mas
               A9
O dom é ver o que se faz

   D9        A9   E
Passou, por mim
Fez que não
             F#
 Me viu, mas
    D9      A9
Deixou pra mim

Um pouco mais
   daquele andar
   F#              A9
Eu sei, sigo a vontade então
F#             A9
 Eu fico a vontade então
F#              A9
 Me deixa à vontade então
F#
 Que eu te deixo à
    A9
vontade então..yeah!!!

[Solo] F#  A  F#  A

F#             A9
O bom é ver o que
 Se faz, mas
F#                A9
Ela gosta de Transar
 No escuro
F#                A9
No escuro a coisa ferve
      F#
Mais,   mas
               A9
O dom é ver o que se faz

   D9        A9   E
Passou, por mim
Fez que não
             F#
 Me viu, mas
    D9      A9
Deixou pra mim

Um pouco mais
   daquele andar
   F#              A9
Eu sei, sigo a vontade então
F#             A9
 Eu fico a vontade então
F#              A9
 Me deixa à vontade então
F#
 Que eu te deixo à
      A9
  vontade então..yeah!!!

[Solo] F#  A  F#  A
       F#  A  F#  A
       F#  A  F#  A
       F#  A  F#  A

E|-----------------------------------------------------|
B|--------7--7--7h9-----7--7--7h9----------------------|
G|---6~-6--6--6-----6-6---6--6-------------------------|
D|-----------------------------------------------------|
A|-----------------------------------------------------|
E|-----------------------------------------------------|

E|-----------------------------------------------------|
B|--7h9~-9---9-10-12-12-10-9-9~-9-9-10-12-12-10--14h12-|
D|-----------------------------------------------------|
A|-----------------------------------------------------|
E|-----------------------------------------------------|

E|-----------------------------------------------------|
B|--9~-9-9-10-12-12-10-9-9~-9-10-12-12-10-9------------|
G|-----------------------------------------------------|
D|-----------------------------------------------------|
A|-----------------------------------------------------|
E|-----------------------------------------------------|

F#  A  F#  A )

   D9        A9   E
Passou, por mim
Fez que não
             F#
 Me viu, mas
    D9      A9
Deixou pra mim

Um pouco mais
   Daquele andar
   F#              A9
Eu sei, sigo a vontade então
F#             A9
 Eu fico a vontade então
F#              A9
 Me deixa à vontade então
F#
 Que eu te deixo à
     A9
 Vontade então..yeah!!!

[Solo] F#  A  F#  A

E|-----------------------------------|
B|---7-7---9-9-----10-10-10---107---|
G|-----------------------------------|
D|-----------------------------------|
A|-----------------------------------|
E|-----------------------------------|

E|----------------------------------|
B|----------------------------------|
G|----------------------------------|
D|-------------2--------------------|
A|----4-4-2------4-2-4-2-4----------|
E|-2--------5-----------------------|

E|----------------------------------|
B|----------------------------------|
G|----------------------------------|
D|-------------2--------------------|
A|----4-4-2------4--2-2-4-----------|
E|-2--------5-----------------------|

Video Clip de Transar No Escuro


ACORDES PARA GUITARRA

PIANO UKELELE
D9
E9
F#m
A9
E
D
F#
A


TOP 20: Las más tocadas de Charlie Brown Jr.


Acordes

Cerrar
D9
E9
F#m
A9
E
D
F#
A

19.16

x

175