Deep Feeling
Chuck Berry
Acordes

Subida por Rodolfo
Álbum: After School Session ( 1957)


Más Versiones
Ver. 2
HERRAMIENTAS

Cambiar Cifrado
Americano Latino

Cambiar Tonalidad
-1 +1

Partir Pantalla Imprimir FAQ

Ver solo la LETRA

+A
-A
LETRA CON ACORDES

¿Tu Guitarra esta Afinada? PRUEBA NUESTRO NUEVO AFINADOR


e|-----------------9-----9---------------------------------------|
B|-------12-------12b14-12-----------7----7\-----------------|
G|-------13b15r13------------9-------9b11-9\-----------------|
D|--------------------------11b13r11-----------------------------|
A|-3*-3*---------------------------------------------------------|
E|---------------------------------------------------------------|

e|------------9-----9--------------------------------------------|
B|--12-------12b14-12--12----------------------------------------|
G|--13b15r13-----------11b13r11---9b10r9--7b8r7-----------------|
D|---------------------------------------------------------------|
A|-----------------------------------------------9b10r9--7----|
E|---------------------------------------------------------------|

e|---------------------------------------------------------------|
B|------12------12-------------12b13r12~~-12b13-12b13-12b13------|
G|-12b14---12b14---12b14r12----12b13r12~~-12b13-12b13-12b13s11---|
D|--------------------------9------------------------------------|
A|---------------------------------------------------------------|
E|---------------------------------------------------------------|

e|---------------------------------------------------------------|
B|-7-----------------------7-------------------------------------|
G|-9b11r9------------------9b11r9--------------------------------|
D|---------9b10r9-7~--------------9b10r9-7~----------------------|
A|-------------------0*-0*---------------------------------------|
E|---------------------------------------------------------------|

e|---------------------------------------------------------------|
B|--12b14r12-------12--------------------------------------------|
G|-----------12b14-----12b14r12--12b14r12--9---------------------|
D|-------------------------------------------9~------------------|
A|---------------------------------------------------------------|
E|---------------------------------------------------------------|

e|-10s12~------------------10s12~--------------------------------|
B|-10s12~--14--------------10s12~--14----------12b13r12b13~------|
G|------------12b13-------------------12b13----12b13r12b13~------|
D|------------------14-------------------------------------------|
A|---------------------14-------------------14-------------------|
E|---------------------------------------------------------------|

e|---------------------------------------------------------------|
B|-------12------------------------------------------------------|
G|-12b14----12b13r12---9~~---------------------------------------|
D|-------------------9-------------------------------------------|
A|---------------------------------------------------------------|
E|---------------------------------------------------------------|

e|---12s24~~--------------19~--17s24-17s19~--21------------------------|
B|---12s24~~--17-17-19b21------17s24-17s19~-----19b20------------------|
G|----------------------------------------------------21-x-21-x-21-x-21-|
D|----------------------------------------------------------------------|
A|----------------------------------------------------------------------|
E|----------------------------------------------------------------------|

e|---------------------------------------------------------------|
B|-------17-17-17-17--19-------17-17-17-17--19-------------------|
G|-17b19-----------------17b19-----------------------------------|
D|---------------------------------------------------------------|
A|---------------------------------------------------------------|
E|---------------------------------------------------------------|

e|---------------------------------------------------------------|
B|------17-19-------17-19-------17-19-------17-19----------------|
G|-17b19-------17b19-------17b19-------17b19---------------------|
D|---------------------------------------------------------------|
A|---------------------------------------------------------------|
E|---------------------------------------------------------------|

e|---------------------------------------------------------------|
B|--12----------------12-----------------------------------------|
G|--13b15-13----12b14----12b14r12--9~----------------------------|
D|---------------------------------------------------------------|
A|---------------------------------------------------------------|
E|---------------------------------------------------------------|

e|--10s12-12------------------10s12------------------------------|
B|--10s12-12--14--------------10s12--14-----------12b13r12b13~---|
G|---------------12b13------------------12b13-----12b13r12b13~---|
D|---------------------14----------------------------------------|
A|------------------------14------------------14-----------------|
E|---------------------------------------------------------------|

e|-------12------12----------------------------------------------|
B|---------------------------------------------------------------|
G|--11s13---13s12---12s11-11--7s9~~------------------------------|
D|---------------------------------------------------------------|
A|---------------------------------------------------------------|
E|---------------------------------------------------------------|

e|-----------------9-----9-------------------------------------|
B|-------12-------12b14-12---------7----7\-----------------|
G|-------13b15r13------------9-------9b11-9\-----------------|
D|--------------------------11b13r11-----------------------------|
A|-3*-3*---------------------------------------------------------|
E|---------------------------------------------------------------|

e|------------9-----9--------------------------------------------|
B|--12-------12b14-12----12-------------12-----------12----------|
G|--13b15r13-------------11b13r11-------11b13r11-----11b13r11----|
D|--------------------9*----------9*-9*-----------9*-------------|
A|---------------------------------------------------------------|
E|---------------------------------------------------------------|

e|--------------------------------------12s14s12------------------------|
B|--7-----------------------------------12s14s12-------12---------------|
G|--9b11-9b11-11r9~--9b10r9----------------------12b14----12b14r12-9~---|
D|--------------------------9b10r9--7~----------------------------------|
A|----------------------------------------------------------------------|
E|----------------------------------------------------------------------|

e|--10s14~--12---12--------------------------------------------------|
B|--10s14~--12---12--12---------------------------------------------|
G|----------------------11--9-----------------------------------------|
D|---------------------------9--12--9b10r9----------------------------|
A|-------------------------------12--9b10r9--7~~-----------------------|
E|----------------------------------------------------------------------|

e|-----------------------------------------------------------------|
B|-------12--------12----------------------------------------------|
G|-12b14-----12b14----12b14r12-------------------------------------|
D|------------------------------9--12b14r12s14~~-------------------|
A|-----------------------------------------------------------------|
E|-----------------------------------------------------------------|


Contribuição: Wagner Rambo ([email protected])////////////////// ¿Te Animas? Sube una canción a este sitio. //////////////////

ACORDES PARA GUITARRA

PIANO UKELELE


COMENTARIOS

Aún no hay comentarios,

¡escribe el primero!

Escribe una pregunta, duda o comentario sobre esta canción, te responderemos a la brevedad.

Las canciones más tocadas de Chuck Berry

Toca una Canción al Azar de Chuck Berry

11.13


Nuestro servidor se demoró 3.14 segundos en generar esta página. Claramente hay conexiones mas rápidas...