Compartir


Imprimir FAQ
+A
-A

Texto

Desplazamiento

Transportador

Color de Fondo

Archivos

-A
+A
Intro:

E|------------------------------|---------------------------------------------|
B|----------12----13----13-12-10|---------12----13----13-12----12-10----10----|
G|------------------------------|------------------------------------------12-|
D|-10-10s12----12----12---------|10-10s12----12----12-------12-------12-------|
A|------------------------------|---------------------------------------------|
E|------------------------------|---------------------------------------------|

E|---------------------------|
B|---------------------------|
G|---------------------------|
D|---------------------------|
A-8-8-7-7-6-6-5-5-3-4-5~~~~-|
E|---------------------------|

The rest of the song is a twelve bar blues in G (just play Chuck Berry riff in shuffle under it)

G
In the wee, wee hours
C                      G
That's when I think of you
C
In the wee, wee hours
                       G
That's when I think of you
D
You say, but yet I wonder
C                     G
If your love was ever true

In a wee little room
I sit alone and think of you
In a wee little room
I sit alone and think of you
I wonder if you still remember
All the things we used to do

One little song
For a fading memory
One little song
For a fading memory
Of the one I really love
The only one for me

HERRAMIENTAS ACORDESWEB:


LETRA DE LA CANCIÓN:

Ver la letra sola (sin acordes)

DESCARGAR PDF / IMPRIMIR CANCIÓN



ACORDES PARA GUITARRA

PIANO UKELELE
G
C
D


TOP 20: Las más tocadas de Chuck Berry


Toca una Canción al Azar de Chuck Berry

Acordes

Cerrar
G
C
D

11.32


170