No Money Down
Chuck Berry
Acordes

Subida por Mario
Álbum: After School Session ( 1957)


Más Versiones
Ver. 2

Cambiar Cifrado
Americano Latino

Cambiar Tonalidad
-1 +1

Partir Pantalla Imprimir FAQ

+A
-A


Ver solo la LETRA
Pablo Vadillo a.k.a. LG ThatGuy

Standard Tuning : E A D G Time Signature: 4/4

| | | | | | | |
|--------------------------------|--------------------------------|
|--------------------------------|5-/-----------------------------|
|--------------------5---7-----7-|--------------------5---7-----7-|
|--------------------------------|--------------------------------|

| | | | | | | |
|--------------------------------|--------------------------------|
|5-/-----------------------------|5-/-----------------------------|
|--------------------5---7-----7-|--------------------5---7-----7-|
|--------------------------------|--------------------------------|

| | | | | | | |
|--------------------------------|--------------------------------|
|5-/-----------------------------|5-/---------------------5-------|
|--------------------5---7-----7-|--------------------------------|
|--------------------------------|--------------------------------|

| | | | | | | |
|------------------------2-----5-|3-----3-2-----------------------|
|--------2-----2-5-----5---------|----------------5-------2-----2-|
|3-----3-------------------------|--------------------------------|
|--------------------------------|--------------------------------|

| | | | | | | |
|------------------------5-6-7---|7-----7-------7-----------------|
|5-------------------------------|--------9-----------------------|
|--------7-------5---------------|----------------5-----5-7-----5-|
|--------------------------------|--------------------------------|

| | | | | | | |
|--------4-------7---------------|--------------------------------|
|5-------------------------------|5-------------------------------|
|------------------------5-------|--------7-------5-------7-------|
|--------------------------------|--------------------------------|

| | | | | | | |
|--------------------------------|--------------------------------|
|--------------------------------|5-------------------------------|
|5-----5---------5-------7-------|--------------------5---7-----7-|
|--------7-----7-----------------|--------------------------------|

| | | | | | | |
|--------------------------------|--------------------------------|
|5-/-----------------------------|5-/-----------------------------|
|--------------------5---7-----7-|--------------------5---7-----7-|
|--------------------------------|--------------------------------|

ACORDES PARA GUITARRA

PIANO UKELELE


COMENTARIOS

Aún no hay comentarios,

¡escribe el primero!

Escribe una pregunta, duda o comentario sobre esta canción, te responderemos a la brevedad.

Las más tocadas de Chuck Berry

Toca una Canción al Azar de Chuck Berry