Promised Land
Chuck Berry
Acordes

Subida por Eduardoor
Álbum: St. Louis to Liverpool ( 1964)


Más Versiones
Ver. 2 Ver. 3 Ver. 4 Ver. 5 Ver. 6

Cambiar Cifrado
Americano Latino

Cambiar Tonalidad
-1 +1

Partir Pantalla Imprimir FAQ

+A
-A


Ver solo la LETRA
Intro
e|--------------8--8--8--8--8--8--8--8--8----------------------------------|
B|-------8--10--8--8--8--8--8--8--8--8--8--11--10--8--8--------------------|
G|--8/9------------------------------------11--10--8--9----------0---------|
D|-------------------------------------------------------10--7-------------|
A|-------------------------------------------------------------------------|
E|-------------------------------------------------------------------------|

Verse
Guitar 1
C6
x x x x x x x x x x x x x x x x x
Left my home_ in Nor- folk vir-gin-ia Cal- i -for - nia
F G9
x x x x x x x x x x x x x x x x x x x x
on my mind I Stra-dled that grey hound and

x x x x x x x x x x x x x x x x x
rode him in - to Ral-eigh and on a - Cross Car - o - Line
(repeat each verse)

Guitarra 2

e|-----------------------------------------|
B|--------------------------------------O--|
G|--5-----7-----5-----7-----5-----7----X2--|
D|--5-----7-----5-----7-----5-----7-----O--|
A|--3--3--3--3--3--3--3--3--3--3--3--3-----|
E|-----------------------------------------|

e|-------------------------------------------------------------------------|
B|-------------------------------------------------------------------------|
G|-------------------------------------------------------------------------|
D|--------------1----------------------------------------------------------|
A|--3-----5-----3-----5-----5-----7-----5--7--7-----5-----7-----5--7--7----|
E|--1--1--1--1--1--1--1--1--3--3--3--3--3--3--3--3--3--3--3--3--3--3--3--3-|

e|-------------------------------------------------------------------------|
B|-------------------------------------------------------------------------|
G|-----------------------------5-----7-----5-----7-----5-----7-------------|
D|-----------------------------5-----7-----5-----7-----5-----7-------------|
A|--5-----7-----5--7--7--------3--3--3--3--3--3--3--3--3--3--3--3----------|
E|--3--3--3--3--3--3--3--3-------------------------------------------------|

| / slide up
| slide down
| h hammer-on
| p pull-off
| ~ vibrato
| + harmonic
| x Mute note

ACORDES PARA GUITARRA

PIANO UKELELE
C6
F
G9


COMENTARIOS

Aún no hay comentarios,

¡escribe el primero!

Escribe una pregunta, duda o comentario sobre esta canción, te responderemos a la brevedad.

Las más tocadas de Chuck Berry

Toca una Canción al Azar de Chuck Berry
C6
F
G9