Amor de Primavera

Di Paullo e Paulino

Acordes

Subida por Ivan


Más Versiones
Ver. 2 Ver. 3 Ver. 4 Ver. 5 Ver. 6

Cambiar Cifrado
Americano Latino

Cambiar Tonalidad
-1 +1

Partir Pantalla Imprimir FAQ

+A
-A
Mudar para Português

Ver solo la LETRA
[Intro] E  A  E  B7  E  A  E

E|--9h7--7--9h7--7--9h7--7--9--------5---5---5---5----------------|
B|----------------------------------------------------------------|
G|--9----9--9----9--9----9--9------6---6---6---6---6--------------|
D|----------------------------------------------------------------|
A|----------------------------------------------------------------|
E|----------------------------------------------------------------|

E|--9h7--7--9h7--7--9h7--7--7------4---4-----2---2--0---4--2--0---|
B|----------------------------------------------------------------|
G|--9----9--9----9--9----9--9----4---4---4-----4----1---4--4--1---|
D|----------------------------------------------------------------|
A|----------------------------------------------------------------|
E|----------------------------------------------------------------|

E|--2--4--2--4--2----2h4--2h4--2-----0--2--0----9--0--------------|
B|--------------------------------4-------------------------------|
G|--4--4--4--4--4----4----4----2-----1--2--1----9--1--------------|
D|--------------------------------4-------------------------------|
A|----------------------------------------------------------------|
E|----------------------------------------------------------------|

E A E
O amor de primavera não termina no verão
B7 E E7
No outono ele floresce, no inverno é só paixão
A E
Eu pensei que fosse fácil esquecer aquele amor
B7 E
Mas quando veio a saudade foi demais a minha dor
G# A A# B7 E A
Quando vem a saudade foi demais a minha dor
A B7 E E7
Uuuuuuu uuu uu
A B7 E A E
Uuuuuuu uuu uu

A E
Coração que sai vencido quase sempre tem razão
B7 E E7
E a razão que sempre vence nunca teve coração
A E
O amor é como um dia, é a luz na escuridão
B7 E
Traz de volta a alegria onde existe solidão
G# A Bb B E A
Traz de volta a alegria onde existe solidão
A B7 E E7
Uuuuuuu uuu uu
A B7 E
Uuuuuuu uuu uuuuu

NUEVO FORO DE MÚSICA

¿Tienes alguna duda, consulta, pregunta, consejo o algo para compartir sobre esta canción?

¡Puedes abrir un hilo en el FORO para que la comunidad te ayude! Hacer una pregunta

ACORDES PARA GUITARRA

PIANO UKELELE
E
A
B7
E7
G#
A#
Bb
B


Las más tocadas de Di Paullo e Paulino

E
A
B7
E7
G#
A#
Bb
B