Meu Céu

Di Paullo e Paulino

Acordes

Subida por Abelio


Más Versiones
Ver. 2 Ver. 3 Ver. 4 Ver. 5 Ver. 6

Cambiar Cifrado
Americano Latino

Cambiar Tonalidad
-1 +1

Partir Pantalla Imprimir FAQ

+A
-A
Mudar para Português

Ver solo la LETRA
[Intro] A  E  E7  A  E  E7  A

[Solo]

E|----9--7--7--5---5-----------------------|
B|----------------5---9--7--5--3--5--------|
G|-7/9--7--9--6------9--7--6--4--6---------|
D|-----------------------------------------|
A|-----------------------------------------|
E|-----------------------------------------|

A E E7 A
Armo a rede na varanda, afino minha viola
E E7 A
Sabiá canta comigo, mando a tristeza embora
A7 D A
No lugar aonde eu moro, solidão não me amola
E E7 A A7
Quando eu faço um ponteado, a cabocla cantarola

D A
Não é o céu conforme eu aprendi
A G#m F#m E
Mas se Deus achar por bem
E7 A
Pode me deixar aqui

( A E E7 A E E7 A )

E|----9-9/7--7--7--5--5--------------------|
B|-------------------5--9--7--5--3--5------|
G|-7/9-9----7--9--6----9--7--6--4--6-------|
D|-----------------------------------------|
A|-----------------------------------------|
E|-----------------------------------------|

E E7 A
Quando vai chegando a noite, a natureza desmaia
E E7 A
O sereno vem caindo na folha da samambaia
A7 D A
Eu vou na biquinha d'água e tiro suor do rosto
E E7 A A7
Esperando a comidinha temperada com bom gosto
D A
Não é o céu conforme eu aprendi
A G#m F#m E
Mas se Deus achar por bem
E7 A
Pode me deixar aqui

( A E E7 A E E7 A )

E|----9-9/7--7--7--5--5--------------------|
B|-------------------5--9--7--5--3--5------|
G|-7/9-9----7--9--6----9--7--6--4--6-------|
D|-----------------------------------------|
A|-----------------------------------------|
E|-----------------------------------------|

E E7 A
Chamo a lua pra cantiga ao som da modinha boa
E E7 A
E misturo a cantoria com os bichos da lagoa
A7 D A
Urutau canta doído, sapo-boi marca o compasso
E E7 A A7
Afinados no bordão da viola nos meus braços
D A
Não é o céu conforme eu aprendi
A G#m F#m E
Mas se Deus achar por bem
E7 A
Pode me deixar aqui

( A E E7 A E E7 A )

E|----9-9/7--7--7--5--5--------------------|
B|-------------------5--9--7--5--3--5------|
G|-7/9-9----7--9--6----9--7--6--4--6-------|
D|-----------------------------------------|
A|-----------------------------------------|
E|-----------------------------------------|

E E7 A
Noite alta, vou dormir para acordar bem cedinho
E E7 A
Pois não perco a alvorada no cantar dos passarinhos
A7 D A
Pra me desejar bom dia, coroar o meu sossego
E E7 A A7
Eu recebo a visita do cuitelinho azulego
D A
Não é o céu conforme eu aprendi
A G#m F#m E
Mas se Deus achar por bem
E7 A E
Pode me deixar aqui
E7 A
Pode me deixar aqui

[Final]

E E7 A
E|----7--9/7--7--7--5----|
G|-----------------------|
D|-7/9--9----7--9--6-----|
A|-----------------------|
E|-----------------------|

ACORDES PARA GUITARRA

PIANO UKELELE
A
E
E7
A7
D
G#m
F#m


Las más tocadas de Di Paullo e Paulino

A
E
E7
A7
D
G#m
F#m