El camino (no cambió)
Felipe el Hombre
Acordes

Subida por matystratt85


Más Versiones
Ver. 2
HERRAMIENTAS

Cambiar Cifrado
Americano Latino

Cambiar Tonalidad
-1 +1

Partir Pantalla Imprimir FAQ

+A
-A
LETRA CON ACORDES

¿Tu Guitarra esta Afinada? PRUEBA NUESTRO NUEVO AFINADOR

  Em
Y aquí estoy otra vez sentado
 B                C
pensando en lo aprendido
        Em
Ya escogí el camino largo
 B                 C
todo fue tiempo perdido

   Em
No cambió oh!
Em       B  C
No cambió ohh...


e||---------------------------||----------------------------|
B||---------------------------||----------------------------|
G||---2/4--7--9----12-12/--4--||--2/4--7--9-9---12-12/--4---|
D||---------------------------||----------------------------|
A||---------------------------||----------------------------|
E||---------------------------||----------------------------|

e||--------------------|
B||--------------------|
G||-2/4-4--2-0-2--4-4--|
D||--------------------|
A||--------------------|
E||--------------------|


e||----------------------|
B||----------------------|
G||--2/4-4--2-0-2-0------|
D||------------------2-0-|
A||----------------------|
E||----------------------|

 Em
Y aquí estoy otra vez a lado
  B             C
viviendo lo prohibido
  Em
Y aunque el tiempo está durando
   B              C
no me saca del camino...

       Em           B    C
no cambió oh! no cambió ohh...
       Em           B    C
no cambió oh! no cambió ohhh...

Em   B    C    D
ahhh ahhh ahhh ahhh...(X4)

(un solo rasgueo hacia abajo)
EmBCD,  Em. (fin)





Em        C      B         D
||--7--| |--3--| |--2--| |--5--|
||--8--| |--5--| |--4--| |--7--|
||--9--| |--5--| |--4--| |--7--|
||--9--| |--5--| |--4--| |--7--|
||--7--| |--3--| |--2--| |--5--|
||--x--| |--x--| |--x--| |--x--|

////////////////// ¿Te Animas? Sube una canción a este sitio. //////////////////

ACORDES PARA GUITARRA

PIANO UKELELE
Em
B
C
D


COMENTARIOS

Aún no hay comentarios,

¡escribe el primero!

Escribe una pregunta, duda o comentario sobre esta canción, te responderemos a la brevedad.

Las canciones más tocadas de Felipe el Hombre

Toca una Canción al Azar de Felipe el Hombre
Em
B
C
D

23.52


Nuestro servidor se demoró 2.39 segundos en generar esta página. Claramente hay conexiones mas rápidas...