Otro Día
Felipe el Hombre
Acordes

Subida por Fernanda


Más Versiones
Ver. 2 Ver. 3
HERRAMIENTAS

Cambiar Cifrado
Americano Latino

Cambiar Tonalidad
-1 +1

Partir Pantalla Imprimir FAQ

+A
-A
LETRA CON ACORDES

¿Tu Guitarra esta Afinada? PRUEBA NUESTRO NUEVO AFINADOR

Intro:

    A#m                  D#
e|--------------------|-----------------------|
B|--------------------|-----------------------|
G|--------6-----------|--------6--------------|
D|--------------------|-----------------------|
A|--------------------|-----------------------| (x2)
E|--4h6-6----6-4-6/9--|--4h6-6----6-4-6/11-9--|


       A#m                 D#
Cuando lento caminamos sin saber a dónde ir
         A#m                     D#
Ahora el viento que me seca lo de cerca pasa rápido
A#m                 D#
Solo me acompaña la luna en la montaña
A#m            D#
Amanece pronto volverás

e|----------------------|
B|----------------------|
G|----------------------|
D|------------11-11-11--|
A|--8-8--6-6------------|
E|----------------------|

    A#m                      D#
e|------------------------|------------------------------|
B|----------6----------6--|------------11------------11--|
G|----------6----------6--|------------11------------11--|
D|------------------------|------------------------------|
A|------------------------|------------------------------| (x4)
E|--4-6-4-6----4-6-4-6----|--9-11-9-11-----9-11-9-11-----|

Ei dime a dónde vas
Ei ¿cuándo volverás?
Ven dame un poco más
Solo quédate otro día más

e|--------------------|
B|--------------------|
G|--------------------|
D|--------------------|
A|--8-8--6-6-4h6-4----|
E|-----------------6--|

Otro día que se va


A#m - D# - A#m - D#

A#m                       D#
Cuando todo está olvidado sobrevive uno al pasado
A#m                     D#
Tanto pensar que se nos pierde la razón
       A#m            D#
Y ya lo ves que nada pasa en vano
 A#m                      D#               A#m
El miedo ya se ha ido volveremos a tu lado

     D#   A#m - D#
A tu lado

    A#m                      D#
e|------------------------|------------------------------|
B|----------6----------6--|------------11------------11--|
G|----------6----------6--|------------11------------11--|
D|------------------------|------------------------------|
A|------------------------|------------------------------| (x4)
E|--4-6-4-6----4-6-4-6----|--9-11-9-11-----9-11-9-11-----|

Ei dime a dónde vas
Ei ¿cuándo volverás?
Ven dame un poco más
Solo quédate otro día más

e|--------------------|
B|--------------------|
G|--------------------|
D|--------------------|
A|--8-8--6-6-4h6-4----| (x2)
E|-----------------6--|

Otro día que se va
Otro día otra ciudad


Solo:
e|-------------------------------|
B|-------------------------------|
G|-----------6/8p6---------------|
D|--6/8p6----------8--8-6--------|
A|--------8---------------8-6----|
E|----------------------------9--|

e|--------------------|----------------------|
B|--------6--------6--|--------6--------8-6--|
G|--------6--------6--|--------6--------8-6--|
D|--6h8-8----8-6-8----|--6h8-8----8-6-8------|
A|--------------------|----------------------| (x2)
E|--------------------|----------------------|

e|--------------------------------|----------------------|
B|--------------------------------|----------------------|
G|--8/10-10-10-10-10-10--10-8-8-6h|8p6------6---6---6----|
D|--------------------------------|----8--8---8---8---8--|
A|--------------------------------|----------------------| (x2)
E|--------------------------------|----------------------|

e|--------------------------|
B|--------------------------|
G|--8-6----------------6----|
D|------8-6-8-6---6--8---8--|
A|--------------8-----------| (x2)
E|--------------------------|

e|-------------------------------|-------------------------|
B|-------------------------------|-------------------------|
G|--------6----6----6-8-10-8-6---|-6-----------------------|
D|--8-6-8----8----8------------8-|----8-6-8--6---6----6-8--|
A|-------------------------------|-------------8----8------|
E|-------------------------------|-------------------------|

e|----------------------|---------------------|----------------|
B|----------------------|---------------------|----------------|
G|----------------------|---------------------|----------------|
D|----------------------|---------------------|----------6--8--|
A|--8-6----6---------6--|--8-8--6-6-4h6--4-4--|--8-8-6h8-------|
E|------9----9-6--9-----|---------------------|----------------|


Outro:
e|---------------------|--------------------|
B|---------------------|--------------------|
G|---------------------|--------------------|
D|---------------------|--------------------|
A|--8-8--6-6-4h6--4-4--|--8-8--6-6-4h6-4----|
E|---------------------|-----------------6--|

Otro día que se va
Otro día otra ciudad

////////////////// ¿Te Animas? Sube una canción a este sitio. //////////////////

ACORDES PARA GUITARRA

PIANO UKELELE
A#m
D#


COMENTARIOS

Aún no hay comentarios,

¡escribe el primero!

Escribe una pregunta, duda o comentario sobre esta canción, te responderemos a la brevedad.

Las canciones más tocadas de Felipe el Hombre

Toca una Canción al Azar de Felipe el Hombre
A#m
D#

10.41


Nuestro servidor se demoró 0.05 segundos en generar esta página. Eso fue realmente muy rápido!