Mareo

Felipe el Hombre

Acordes

Subida por sarita123


Más Versiones
Ver. 2 Ver. 3

Cambiar Cifrado
Americano Latino

Cambiar Tonalidad
-1 +1

Partir Pantalla Imprimir FAQ

+A
-A
Intro:

Em (Em-riff)
e|-----------------------|
B|-----------------------|
G|------9-9--------------|
D|----------7h8-7--------|
A|--7-7-----------10-----| (x2)
E|-----------------------|

Em (Em-riff)
Estoy entrando en ese lugar
Donde todos intentan hablar
Sigo moviéndome natural
Para no escuchar nada de más

e|----------|------------------|
B|----------|------------------|
G|----9-----|------------------|
D|----9--x6-|------------------|
A|----------|------------------| (x2)
E|--0-------|--0--0-7-5-3-0----|

Em (Em-riff)
Y me separan de la realidad
Los tragos mágicos que tú me das

Am (Am-riff)
e|----------------------------------------|
B|----------------------------------------|
G|--------14-12------------14-14-12-------|
D|--------------14------------------14----|
A|--12-12------------12-12----------------|
E|----------------------------------------|

¿Qué pasa? no sé qué pasa


Em (Em-riff)
Ya no me siento tan natural


B5 B5-A#5-A5
Y no sé
G5 D
Si te veré otra vez
G A E
Es que aún no acabo contigo
G A E
No sé ni donde te has ido
G A E
Está bien querer volar
G A
Para alejarse del ruido


Em (Em-riff)
e|-----------------------| e|--------12----------------|
B|-----------------------| B|-----------15-12----------|
G|------9-9--------------| G|-----------------14-12----|
D|----------7h8-7--------| D|--------------------------|
A|--7-7-----------10-----| (x3) A|--------------------------|
E|-----------------------| E|--12-12-------------------|


Em (Em-riff2)
e|-------------|---------------|
B|------12-----|------14-12----|
G|------12--x3-|------14-12----|
D|-------------|---------------|
A|-------------|---------------|
E|--0-0--------|-0--0----------|

La señorita y su talismán
Se están moviendo cual huracán

Am (Am-riff)
¿Qué pasa? no sé qué pasa

Em (Em-riff2)
Dame tus alas para volar


B5 B5-A#5-A5
Y no sé
G5 D
Si te veré otra vez
G A E
Es que aún no acabo contigo
G A E
No sé ni donde te has ido
G A E
Está bien querer volar
G A
Para alejarse del ruido

e|--------------------------------|
B|--------------------------------|
G|--------------------------------|
D|---------------------0h2-0h2----|
A|--------------------------------|
E|--7-7-5-5-3-3-2-2-0-------------|


Solo: (se toca x2)

Em
e|---------------------------------------|
B|--12-----------------------------------|
G|------14-12-14--12----12---------------|
D|-------------------14-----14-12-14--12-|
A|---------------------------------------|
E|---------------------------------------|

e|--------------------------------------------|
B|--12----------------------------------------|
G|------14-12-14--12----12--------------------|
D|-------------------14-----14-12-14-12-------|
A|--------------------------------------14-12-|
E|--------------------------------------------|

Am
e|---------------------------------------|
B|--12-----------------------------------|
G|------14-12-14--12----12---------------|
D|-------------------14-----14-12-14--12-|
A|---------------------------------------|
E|---------------------------------------|

e|-------------------------------------|
B|--12------------------15-12----------|
G|------14-12-14--12----------14-12----|
D|-------------------14----------------|
A|-------------------------------------|
E|-------------------------------------|


E G A E
Es que aún no acabo contigo
G A E
No sé ni donde te has ido
G A E
Está bien querer volar
G A E
Para alejarse del ruido

G A E
Es complicado contigo
G A E
No sé ni dónde te has metido
G A E
Quiero alejarme del ruido
G A
Quiere alejarme contigo

e|--------------------------------|
B|--------------------------------|
G|--------------------------------|
D|---------------------0h2-0h2----|
A|--------------------------------|
E|--7-7-5-5-3-3-2-2-0-------------|


NUEVO FORO DE MÚSICA

¿Tienes alguna duda, consulta, pregunta, consejo o algo para compartir sobre esta canción?

¡Puedes abrir un hilo en el FORO para que la comunidad te ayude! Hacer una pregunta

ACORDES PARA GUITARRA

PIANO UKELELE
Em
Am
B5
A#5
A5
G5
D
G
A
E


Las más tocadas de Felipe el Hombre

Em
Am
B5
A#5
A5
G5
D
G
A
E