Canción de amor (Acordes)

Francisco Barrios

Subida por Abels

Compartir


Cambiar Cifrado
Americano Latino

Cambiar Tonalidad
-1 +1
Imprimir FAQ
+A
-A

Texto

Desplazamiento

Transportador

Color de Fondo

Archivos

-A
+A
Creo que las notas andan bien algunas notas no se la neta como
se llamen si te interesa investigarlas me las mandas luego .
Si le agarras el modo al ritmo que es lo mas kbron se va a oir
a toda madre. En la pare de (****) Juegas con el dedo meñique y
anular  que son los que en esta transcripcion aparecen como E1
y E2 , en realidad son variantes Em y Em7

INTRO

                                   Esus6 Esus6
1---------------------------0---0---0---0---
2---------------------------3---3---3---3---
3---------------------------2---2---2---2---
4------------------2---0----2---2---2---2---
5-------------2-------------0---0---0---0---
6----0---3------------------0---0---0---0----
Se repite 4Veces




       A1                                         Esus6
Desnúdate, mientras te canto esta canción de amor
   A1                              Esus6    (arreglo INTRO)
Amor caliente húmedo sucio indecente
F7                                       **
La luna esta sudando y palidece con espasmos
Esus6            F7
Temblorosa una nube en la cobija es una
                         ** Esus6
Cómplice perversa silenciosa

  A1                                         Esus6
Acuéstate, que te imagino cariñosa
   A1                              Esus6    (arreglo INTRO)
Entre tus fantasías que te descubren maliciosa
F7                                                                **  Esus6
La noche esta rajada y tiene labios que palpitan amorosos
F7                                      *** B7**** Esus6 E1 E2
Un ojo se derrite y una suave tentación se encaja


Mastúrbate mientras te canto esta canción de amor

Amor caliente húmedo sucio indecente!
**
1------------------------------
2------------------------------
3---4--3--2------------------
4----------------5--4--3--2-
5-----------------------------
6-----------------------------


***

1------------------------------
2------------------------------
3---4--3--2------------------
4----------------5--4--3-----
5--------------------------2--
6-----------------------------
****
1--------------------------------
2----5---3----------------------
3------------4--3--2--0--------
4---------------------------2---
5-------------------------------
6-------------------------------
             E A D G B  E
Esus6     0  2  2  3  0 0
A1          0  0  2  2  4 0
E1          0  2  2  2  0  0
E2          0  2  2  2  3  0


Video Clip de Canción de amor


ACORDES PARA GUITARRA

PIANO UKELELE
A
Esus6
F7
E
E2
E
A
D
G
B


TOP 20: Las más tocadas de Francisco Barrios


Acordes

Cerrar
A
Esus6
F7
E
E2
E
A
D
G
B

00.24

x

108