Mi nueva canción (Acordes)

Francisco Barrios

Subida por Yovannybass

Compartir


Cambiar Cifrado
Americano Latino

Cambiar Tonalidad
-1 +1
Imprimir FAQ
+A
-A

Texto

Desplazamiento

Transportador

Color de Fondo

Archivos

-A
+A
Primeramente esta rolititita del Mastuerzo es hecha 
por aquello de la oleada moderna convertida en moda
llamada Trova o no?

Luego, esta rola es del disco [email protected] el cual es el 2° 
del Mastuerzo, el primero fue ´Prohibido´, y algunas de 
las rolas del 1° estan entremezcladas como si fueran de
Botellita de Jerez(agrupacion a la que pertenece) esto 
lo pueden constatar en 

http://www.atame.org/b/botellita/

estaria bien que las rolas del Paco Barrios las pasaran 
para aca no?

chido!!!

---------------

INTRO:
      C        C/B       Am       Am/G        F1      G1  
6|---------|---------|---------|-3-------|-1-------|--3--|
5|-3-------|-2-------|-0-------|---------|---------|-----|
4|---2-----|---0-----|---2-----|---2-----|---3-----|--0--|
3|-----0---|-----0---|-----2---|-----2---|-----2---|--0--|
2|-------1-|-------1-|-------1-|-------1-|-------1-|-----|
1|---------|---------|---------|---------|---------|-----|

      C        C/B       Am       Am/G        F1      G2  
6|---------|---------|---------|-3-------|-1-------|--3--|
5|-3-------|-2-------|-0-------|---------|---------|-----|
4|---2-----|---0-----|---2-----|---2-----|---3-----|--0--|
3|-----0---|-----0---|-----2---|-----2---|-----2---|--0--|
2|-------1-|-------1-|-------1-|-------1-|-------1-|--0--|
1|---------|---------|---------|---------|---------|-----|

    C        C/B       Am       
Esta es una vieja cancion 
      Am/G   F1                     G2  
que alguna vez fue una nueva canción, 
     C         C/B     Am
cancion que me hizo saber 
             Am/G    F1   (F#)           D9~D  
que lo que estoy cantando ya es un modismo 
                   G
-que no es lo mismo- 
               G7
pero es lo mesmo 
                         C1   F2   C*
y ya es una vieja canción...

            C                   F2          C*  
6|---------------------|-1---------------|-----|
5|-3-------------------|-----------------|--3--|
4|---------------------|-----------------|--5--|
3|---0---0---0---0---0-|---2---2---2-----|--5--|
2|-----1---1-------1---|-----1---1-------|--5--|
1|-------------0-------|-------------1~3-|--3--|

ACORDES:

C    x3201x
C1   x32010
C*   x35553
F1   1x321x
F2   1x3211
G    3xx003
G1   3x00xx
G2   3x000x
G7   3xx001
D9   xx0230 
D    xx0232
Am   x0221x
Am/G 3x221x
C/B  x2001x
(F#) 2xxxxx

P.D.  pa´cualquier reclamacion, duda, pregunta, 
     respuesta, escriban a [email protected]
     ya que el reboraines esta de baja...


Video Clip de Mi nueva canción


ACORDES PARA GUITARRA

PIANO UKELELE
C
C/B
Am
Am/G
F
G
G2
F#
G
G7
C
F2
C


TOP 20: Las más tocadas de Francisco Barrios


Acordes

Cerrar
C
C/B
Am
Am/G
F
G
G2
F#
G
G7
C
F2
C

19.52

x

111