c ▷ BOIKOT ANTINATURAL: (Fun people) Acordes para Guitarra, Piano & Ukelele

Boikot antinatural (Acordes)

Fun people

Subida por Andresg106

Compartir


Imprimir FAQ
+A
-A

Texto

Desplazamiento

Transportador

Color de Fondo

Archivos

-A
+A
Intro

-------------- ---
-------------- ---
-------------- ---
-------------- 3 veces y despues --- (dejar sonando)
--55--55--55-- -5-
--33--33--33-- -3-

Verso
----------------------------------
----------------------------------
----------------------------------
-11-----11--9--12--9--11----------
--9--9---9--7--10--7---9----------
-----7----------------------------

La parte de ´La lucha por el poder....´

----------------------------------
----------------------------------
----------------------------------
-6-----7--------------------------
-4--5--5--7-----------------------
----3-----5-----------------------

Estribillo
----------------------------------
----------------------------------
----------------------------------
-11-----11--9--12--9--11----------
--9--9---9--7--10--7---9----------
-----7----------------------------

La parte de ´La lucha por el poder....´
zolo guitarra

----------------------------------------
----------------------------------------
----------------------------------------
-6-4-6-4-6-4-6-4-6-4-6------------------
-4-2-4-2-4-2-4-2-4-2-4--7-9-7-9-7-9-7-9-
------------------------5-7-5-7-5-7-5-7-


Video Clip de Boikot antinatural


ACORDES PARA GUITARRA

PIANO UKELELE


TOP 20: Las más tocadas de Fun people


Toca una Canción al Azar de Fun people

Acordes

Cerrar

04.20

x

53