Compartir


Imprimir FAQ
+A
-A

Texto

Desplazamiento

Transportador

Color de Fondo

Archivos

-A
+A
Intro:
Se puede hacer de 2 formas 

Primera
           A
e:------------------------
B:------------------------
G:------------------------     X 4
D:---------7-7--7-7-7-7-7-
A:---------7-7--7-7-7-7-7-
E:--0-3-0--5-5--5-5-5-5-5-

e:------------------
B:------------------
G:------------------
D:--4/6-4-----------
A:--------7-5-------
E:------------------

Segunda

e:--------------------------
B:--------------------------
G:--------------------------     X 4
D:-----5-----7-7--7-7-7-7-7-
A:---7---7---7-7--7-7-7-7-7-
E:-----------5-5--5-5-5-5-5-

e:------------------
B:------------------
G:------------------
D:--4/6-4-----------
A:--------7-5-------
E:------------------

Versos

A                 E
Ahora te es facil venir papi
  B                    A
tu nena no tiene más nada en su panza

Final :A

aca va la letra del tema

Ahora te es facil venir, papa 
tu nena no tiene nada dentro de su panza 
y la gente del barrio no hablara mal de nosotros
, ya no (humm...)  
Ahora te es facil venir,
tu orgullo esta a salvo y yo tengo un agujero 
en mi corazon.
Ahora te es facil venir 
pero, que hay de mi? 
tengo mucho frio en esta oscura pieza
, pero no tengo ganas de salir,
yo queria tener a mi bebe...

Bueno suerte y chau!!


Video Clip de Fácil Venir


ACORDES PARA GUITARRA

PIANO UKELELE
A
B
G
E


TOP 20: Las más tocadas de Fun people


Toca una Canción al Azar de Fun people

Acordes

Cerrar
A
B
G
E

02.54

x

54