c ▷ EASY TO COME: (Fun people) Acordes para Guitarra, Piano & Ukelele

Easy to come (Acordes)

Fun people

Full Álbum: Kum Kum (1996)
Subida por MiraMa

Compartir


Imprimir FAQ
+A
-A

Texto

Desplazamiento

Transportador

Color de Fondo

Archivos

-A
+A
Intro:


G------------------------|
D------------------------|
A------------------------|
E--0-3-0--5-5-5-5-5-5-5--|x4

G-----------|
D-----------|
A--7-5------|
E------9-7--|

Verso: ´Now is easy to come...´

G--------------------------------------------------|
D--------------------------------------------------|
A--------------7--7-7-7-7--------------5--5-5-5-5--|
E--5--5-5-5-5--------------7--7-7-7-7--------------|x2

G-------------------------------------------------|
D-------------------------------------------------|
A--------------7--7-7-7-7-------------------------|
E--5--5-5-5-5---------------7--7-7-7-7-7-7-7-7-7--|x2

Vuele al comienzo:

G------------------------|
D------------------------|
A------------------------|
E--0-3-0--5-5-5-5-5-5-5--|x4

G-----------|
D-----------|
A--7-5------|
E------9-7--|

Verso: ´Now is easy to come...´

G--------------------------------------------------|
D--------------------------------------------------|
A--------------7--7-7-7-7--------------5--5-5-5-5--|
E--5--5-5-5-5--------------7--7-7-7-7--------------|x2

G-------------------------------------------------|
D-------------------------------------------------|
A--------------7--7-7-7-7-------------------------|
E--5--5-5-5-5---------------7--7-7-7-7-7-7-7-7-7--|x2

Final:

G------------------------|
D------------------------|
A------------------------|
E--0-3-0--5-5-5-5-5-5-5--|x4

G------------|
D------------|
A------------|
E--0-3-0--5--|


Video Clip de Easy to come


ACORDES PARA GUITARRA

PIANO UKELELE


TOP 20: Las más tocadas de Fun people


Toca una Canción al Azar de Fun people

Acordes

Cerrar

05.38

x

55