c ▷ CADA VEZ MÁS: (Fun people) Acordes para Guitarra, Piano & Ukelele

Cada vez más (Acordes)

Fun people

Full Álbum: Anesthesia (1994)
Subida por ander25

Compartir


Imprimir FAQ
+A
-A

Texto

Desplazamiento

Transportador

Color de Fondo

Archivos

-A
+A
-0-
-0-
-2-
-2-
-2-
-0-
Esus4*

Esus4  E x2


         E
hoy me siento a tu lado
cada vez mas, cada vez mas!
y te quiero a mi lado
cada vez mas, cada vez mas!
sentimientos que me impulsan
a vivir mejor, vivir mejor!
el mal tiempo no me importa
contigo es mejor, se que es mejor!

Esus4
 cuando el silencio aprieta mis sentidos
                               E
no hay escape, no hay salida Uho!

Te abrazo tomo tu mano para seguir caminando
Esus4
 rumbo a lo desconocido
                   E
con temor pero contigo!   es mejor!

----------------------------
----------------------------
--9-8-----------------------
------11-9-7-9-11-9-7-7-6-7-
----------------------------
----------------------------

-------------------------------------------------------
-------------------------------------------------------
--9-8--------------------------------------------------
------11-9-7-9-11-9-7-7-6--9-7-9-11-9-7-9-7-9-11-9-7-7-6--
-------------------------------------------------------
-------------------------------------------------------


----------------------------------
----------------------------------
----------------------------------
--9-7-9-11-9-7-9-7-9-11-9-7-7-6--
----------------------------------
----------------------------------
Cada vez mas          contigo!!!!


*Ese acorde no estoy seguro de que se llame asi, pero asi se pone los dedos
espero que disfruten esta bella cancion.

Skate 4 life!


Video Clip de Cada vez más


ACORDES PARA GUITARRA

PIANO UKELELE
Esus4
Esus4
E


TOP 20: Las más tocadas de Fun people


Toca una Canción al Azar de Fun people

Acordes

Cerrar
Esus4
Esus4
E

18.55

x

75