c ▷ DÓNDE ESTÁS?: (Fun people) Acordes para Guitarra, Piano & Ukelele

Compartir


Imprimir FAQ
+A
-A

Texto

Desplazamiento

Transportador

Color de Fondo

Archivos

-A
+A
Riff 1:

  A5 A#5 A5 G5 A5 E5   A5 A#5 A5 G5 A5 G5
e|------------------||--------------------|
B|------------------||--------------------|
G|------------------||--------------------|
D|7---8--7--5--7--2-||--7---8--7--5--7--5-|
A|7---8--7--5--7--2-||--7---8--7--5--7--5-|
E|5---6--5--3--5--0-||--5---6--5--3--5--3-|

Riff 2:
e|-----------------|
B|-----------------|(pisa el 7º traste
G|-----------------| Y estira acordes web
D|--*7^8-8-8-8-7-5-| para ke suela como el 8º
A|-----------------| tocando 4 veces esa nota)
E|-----------------|

Riff 3:

  A#5   A5  C5               G5 A5 A5
e|-------------|          e|---------|
B|-------------|          B|---------|
G|-------------| 3 veces  G|---------|
D|-8--8--7--10-|          D|-5--7--7-|
A|-8--8--7--10-|          A|-5--7--7-|
E|-6--6--5--8--|          E|-3--5--5-|

Riff 4:

e|-----------------------------------------------------|
B|-----------------------------------------------------|
G|-----------------------------------------------------|
D|-8--8--7--8^10--8--8--7--10^12--8--8--7--10--5--7--7-|
A|-8--8--7--------8--8--7---------8--8--7--10--5--7--7-|
E|-6--6--5--------6--6--5---------6--6--5--8---3--5--5-|


Contenido: (Riff 1)x3 - (Riff 2)x1 - (Riff 1)x1
           (Riff 3)x2 - (Riff 4)x2 - Repite la primera parte
                                     del Riff 1 (termina en el E5)

Despues el tema que a nekro poco se le entiende la letra seria
todo el tema sobre A#5 - A5 - G5 lo hace 3 veces

cuando dice Where Are You? (donde estas?)es:
A#5   A5  C5
Where Are You?

Letra:

Donde estas cuando se agotan las esperanzas?
Donde estas cuando (te das cuenta)
que la vida real no es ficcion?
Donde estas donde no hay nada que ganar...
pero si mucho por perder?.
Donde estas???


---------------------------------------------------
Bueno creo ke esta completo ...
dedicado a nepo ke le gusta fun people
=Pjojo ...estube un buen rato con esto eh
son como las 5 i 10 de la maniana XD
saludos ..algun comentario ya ke debe ser mi primera tablatura
en la paginaa mr.pinkeyes@hotmail.com


Video Clip de Dónde Estás?


ACORDES PARA GUITARRA

PIANO UKELELE
A5
A#5
G5
E5
C5


TOP 20: Las más tocadas de Fun people


Toca una Canción al Azar de Fun people

Acordes

Cerrar
A5
A#5
G5
E5
C5

22.50

x

136