End of of the World (Acordes)

Fun people

Subida por Reyesgalicia

Compartir


Imprimir FAQ
+A
-A

Texto

Desplazamiento

Transportador

Color de Fondo

Archivos

-A
+A
.Intro
------|-----------------------------------------------------------------------
------|-----------------------------------------------------------------------
-9vvv-|------9-9--9-7--7--7h9--7-7--7--7-----6-6--6---------------------------
------|------9-9--9-9--9--9-9--7-7--7--7-----7-7--7---------------------------
------|--7-7-7-7--7-7--7--7-7--5-5--5-5--4-4-4-4--5---------------------------
------|-----------------------------------------------------------------------
         E                     D         A        D                              

.Intro
Hey!, what´s going on, with me, amor?
and now, I feel how you blinded my heart... 

Riff
---------------------
---------------------
---------------------
------6-----6-----6--
--7-9---7-9---7-9----
---------------------
sin querer, sin querer!! 
sin querer, sin querer!! 

.Intro
Hey! what happen to you, 
with our love, and now, 
the passion is gone, 
but the kids are between us!! 

.E5
It´s the end of the wotld 
at teast, at least for me 

F#5     
Please, don´t hurt them! Please, don´t leave them! 
G#5                       A
Kids need us, more than ever and so do we....

E5
It´s the end of the wotld 
at teast, at least for me 

F#5     
Please, don´t hurt them! Please, don´t leave them! 
G#5                       A5
Kids need us, more than ever and so do we....
B5                         D5
end of the world, end of the world..
A5                            A5
end of the world, end of the world..
E5
End of the world....

. pablo lizardo
[email protected]


Video Clip de End of of the World


ACORDES PARA GUITARRA

PIANO UKELELE
E
D
A
E5
F#5
G#5
A5
B5
D5


TOP 20: Las más tocadas de Fun people


Toca una Canción al Azar de Fun people

Acordes

Cerrar
E
D
A
E5
F#5
G#5
A5
B5
D5

06.11

x

120