c ▷ MOTHER EARTH: (Fun people) Acordes para Guitarra, Piano & Ukelele

Mother Earth (Acordes)

Fun people

Full Álbum: Kum Kum (1996)
Subida por Cdeclotis

Compartir


Imprimir FAQ
+A
-A

Texto

Desplazamiento

Transportador

Color de Fondo

Archivos

-A
+A
Ya lokos aqui les va MOTHER EARTH

Riff 1

1------------------------
2------------------------
3------------------------
4---7-7------------------
5---7-7-7-4-5-5-5-4------
6---5-5------------------

Riff 2

1------------------------
2------------------------
3------------------------
4---9-9------------------
5---9-9-9-6-7-7-7-6------
6---7-7------------------

Riff 3

1-----------------------
2-----------------------
3--6-6------------------
4--6-6-6-3-4-4-4-3------
5--4-4------------------
6-----------------------

Con riff 1

Mother earth, Mother earth 
Mother earth, Mother earth !

B5

for me, for the world, execute me!!
for me, for the world, no remorze!! 

for me, for the world, execute me!!
for me, for the world, no remorze!! 

Con riff 1

Mother earth, Mother earth!
Mother earth, Mother earth!

B5

for me, for the world, execute me!!
for me, for the world, no remorze!! 

for me, for the world, execute me!!
                                   E5      

for me, for the world, no remorze!! 

Con riff 2

Mother earth, Mother earth!

Mother earth, Mother earth!

Con C#5-F#5

eehhhh!!!eehhh!!eehhhh!!!eehhh!!

mother trust me,

thank you

I don´t remind!!

Solo sobre riff 3

Con riff 1

I don´t say, I´m sorry, 

pay me as I paid you I
wanna get better, ya! 

You give me a hand? 

You give me a hand? 

You give me a hand?

Mother earth!

cuaquier duda a funpeople77@hotmail.com


Video Clip de Mother Earth


ACORDES PARA GUITARRA

PIANO UKELELE
B5
E5


TOP 20: Las más tocadas de Fun people


Toca una Canción al Azar de Fun people

Acordes

Cerrar
B5
E5

10.22

x

61