Compartir


Imprimir FAQ
+A
-A

Texto

Desplazamiento

Transportador

Color de Fondo

Archivos

-A
+A

It really bums me out that there are no really good tabs of this amazing song by this 
band.  Here?s the full guitar parts, tabbed by ear by John Ox:

Intro

e|--------------------------------------------------------------|
B|--------------------------------------------------------------|
G|-14---17-14-13---16---13-13-16-13-14------14-14-17-14-13-16---|
D|-------------------------------------14-----------------------|
A|--------------------------------------------------------------|
E|--------------------------------------------------------------|

Intro Chords (Listen for the strumming pattern, pretty simple)

e|--------------------------------------------------------------|
B|--------------------------------------------------------------|
G|-2--------------------------------2-------2-------------------|
D|-2----------2---------2-----------2-------2------------2------|
A|-0----------2---------2-----------0-------0------------2------|
E|------------0---------0--------------------------------0------|

And then...

Accordion (Transcribed for Guitar)

e|----------------------------------|
B|----------------------12-13-12----|
G|-------12-13-14-13-14----------14-|
D|-14-13----------------------------|
A|----------------------------------|
E|----------------------------------|

A5                E5         E5
Sixty revolutions per minute
                   A5
This is my regular speed
A5                       E5            E5
So how do you want me to live with it?

How do you want me to live with it?

Chorus:

A5              E5
Without ringing all alarms
E5                   A5
Without overthrowing czars
A5                   E5
Without emptying the bars
E5
Without screwing with your charts

Then another verse, then the bridge

e|----------------------------|
B|----------------------------|
G|-14-12---7-9---10-9-7-4-5---|
D|----------------------------|
A|-12-10---5-7---8-7-5-2-3----|
E|----------------------------|

Then more stuff.  Throw in the intro riff liberally.  Bass follows the chords, which 
pretty constant through the whole song.

If you want to add a solo, use this scale.

e|-----------------------------5-|
B|-------------------------6-9---|
G|-------------------5-7-9-------|
D|-------------6-7-9-------------|
A|-------5-7-8-------------------|
E|-5-7-8-------------------------|

That?s about it.

HERRAMIENTAS ACORDESWEB:


LETRA DE LA CANCIÓN:

Ver la letra sola (sin acordes)

DESCARGAR PDF / IMPRIMIR CANCIÓN



ACORDES PARA GUITARRA

PIANO UKELELE


TOP 20: Las más tocadas de Gogol Bordello


Acordes

Cerrar

14.46


184