Movement One Songs Of Immigration In Voi-la Minor Mussolini Vs Stalin (Acordes)

Gogol Bordello

Full Álbum: Voi-La Intruder (2002)
Subida por arjuenisperimetro

Compartir


Imprimir FAQ
+A
-A

Texto

Desplazamiento

Transportador

Color de Fondo

Archivos

-A
+A
Album: Voi-La Intruder
Tabber: Duncan Usher *

This song has like, add ons to the chords used and I cant really work them out, but to 
like, the basic gist of them, theyre kinda like this:


e|-0--0--1--3--0--0------------------------------------------------------------|
B|-1--3--3--3--0--3------------------------------------------------------------|
G|-2--2--2--2--1--1------------------------------------------------------------|
D|-2--2--0--0--2--2---something like that anyway-------------------------------|
A|-0--0--0--0--2--2------------------------------------------------------------|
E|-------------0--0------------------------------------------------------------|

Also the strings are muted by the palm of the hand on the third and fourth beats

Well, seeing as there are no lyrics for this song it?s gonna be pretty hard to write 
down. So ill just give you the chords and the small riff that goes along with it.

Chords


    Am   Dm   E  Am
e|--0----1----0---0----------------------------------------------------------|
B|--1----3----0---1----------------------------------------------------------|
G|--2----2----1---2----------------------------------------------------------|
D|--2----0----2---2----------------------------------------------------------|
A|--0----0----2---0----------------------------------------------------------|
E|------------0--------------------------------------------------------------|

The small fiddly riff
e|-------------------------||----------------------||--------------------------|
B|-------------------------||----------------------||--------------------------|
G|----------22----4-5-4-2--||-----------22----4----||----------22----2h4h5-4-2-|
D|-22-55-33----55----------||--22-55-33----55---5--||-22-55-33----55-----------|
A|-------------------------||----------------------||--------------------------|
E|-------------------------||----------------------||--------------------------|


I know this leaves much to the imagination but then again, I don?t think it would be too 
to place the chords to the song. I think this is enough for people to be able to play 
KICK ASS song!! Any questions or comments please say to *

HERRAMIENTAS ACORDESWEB:


LETRA DE LA CANCIÓN:

Ver la letra sola (sin acordes)

DESCARGAR PDF / IMPRIMIR CANCIÓN



ACORDES PARA GUITARRA

PIANO UKELELE


TOP 20: Las más tocadas de Gogol Bordello


Acordes

Cerrar

15.45


192