American Wedding
Gogol Bordello
Acordes

Subida por HARRYSANCHEZ066
Álbum: Super Taranta! ( 2007)



Cambiar Cifrado
Americano Latino

Cambiar Tonalidad
-1 +1

Partir Pantalla Imprimir FAQ

+A
-A


Ver solo la LETRA
Riff Intro

e|----------------------------------------------------------------
B|----------------------------------------------------------------
G|---------------------------------------------------------------- X 2
D|-----------------------------10-10--------------10-10----12-----
A|--10-10-12-----12--12-----12-------12--------12-------12--------
E|----------------------------------------------------------------


Riff Intro (2)
D D C C B A X 2 A C Eb F# A (1 oitava acima) A A F# F# Eb Eb C Eb C A

e|---------------------------------------------------------------------------------
B|---------------------------------------------------------------------------------
G|---------------------------------------------11-14--14-14-11-11------------------
D|-12-12-10-10-9-7---12-12-10-10-9-7-----10-13--------------------13-13-10-13-10---
A|------------------------------------12----------------------------------------12-
E|---------------------------------------------------------------------------------

Am
Have you ever been to American wedding?
C
Where is the vodka, where's marinated herring?
D
where is the musicians that got the taste
Am
Where is the supply that gonna last three days?
Am
Where is the band that like Fanfare.
C
Gonna keep it goin' 24 hours
A5 D5

(Am C D)
Ta-tar-ranta-ta-ta
Super taran-ta taran-ta ran-ta ta

Am
Instead it's one in the mornin'
C
and DJ is patchin' up the cords
D
Everybody's full of cake
Am
Staring at the floor
Am
Proper couples start to wonder
C
That it's time to do
D
People gotta get up early
Am
Yep, they gotta go
Am
People gotta get up early

(Am C D)
Ta-tar-ranta-ta-ta
Super taran-ta taran-ta ran-ta ta

C
And she'd gotta boyfriend
D
And this whole fucking thing
Am
Is just a one huge disappointment

Riff Intro (2)
D D C C B A X 2 A C Eb F# A (1 oitava acima) A A F# F# Eb Eb C Eb C A

e|---------------------------------------------------------------------------------
B|---------------------------------------------------------------------------------
G|---------------------------------------------11-14--14-14-11-11------------------
D|-12-12-10-10-9-7---12-12-10-10-9-7-----10-13--------------------13-13-10-13-10---
A|------------------------------------12----------------------------------------12-
E|---------------------------------------------------------------------------------

Am
Nothing gets these people going
C
not even Gypsy Kings
D
nobody talks about my Supertheory
Am
of Supereverythings!

Riff Intro (2)
D D C C B A X 2 A C Eb F# A (1 oitava acima) A A F# F# Eb Eb C Eb C A

e|---------------------------------------------------------------------------------
B|---------------------------------------------------------------------------------
G|---------------------------------------------11-14--14-14-11-11------------------
D|-12-12-10-10-9-7---12-12-10-10-9-7-----10-13--------------------13-13-10-13-10---
A|------------------------------------12----------------------------------------12-
E|---------------------------------------------------------------------------------

Am
SO be you Donald Trump
C
Or be an anarchist
D
Make sure that your wedding
Am
Doesn't end up like this

(Am C D Am)
Am
I understand the cultures
C
Of a different kind
D
But here word celebration
Am
Just doesn't come to mind

ACORDES PARA GUITARRA

PIANO UKELELE
D
C
B
A
Eb
F#
Am
A5
D5


COMENTARIOS

Aún no hay comentarios,

¡escribe el primero!

Escribe una pregunta, duda o comentario sobre esta canción, te responderemos a la brevedad.

Las más tocadas de Gogol Bordello

Toca una Canción al Azar de Gogol Bordello
D
C
B
A
Eb
F#
Am
A5
D5