Beautifully Broken
Gov't Mule
Acordes

Subida por Grober
Álbum: The Deep End, Volume 1 ( 2001)


Más Versiones
Ver. 2 Ver. 3

Cambiar Cifrado
Americano Latino

Cambiar Tonalidad
-1 +1

Partir Pantalla Imprimir FAQ

+A
-A


Ver solo la LETRA
                             BEAUTIFULLY BROKEN - Govt. Mule
Tabbed by: Chase Matthews
Email: *

Tuning: standard


Intro/bridge:

e|---------------------------------------------------------------------------|
B|-------------------------------------3-3------3----------------------------|
G|-----5h7--5h7--5-----5---------------2-2------2----------------------------|
D|-----5----5------5h7---5h7p5-----------------------------------------------|
A|--0--------------------------7---------------------------------------------|
E|---------------------------------2-2------1-1------------------------------|

Verse:
E F E Dm E F E D
e|------1-------1-------1-------2--------------------------------------------|
B|------1-------3-------1-------3--------------------------------------------|
G|--1---2---1---2---1---2---1---2--------------------------------------------|
D|--2---3---2-------2---3---2------------------------------------------------|
A|--2---3---2-------2---3---2------------------------------------------------|
E|------1---------------1----------------------------------------------------|

Breakdown A:
Dm G C E
e|--1---3--------------------------------------------------------------------|
B|--3---3---1----------------------------------------------------------------|
G|--2---0---0---1------------------------------------------------------------|
D|------0---2---2------------------------------------------------------------|
A|------2---3---2------------------------------------------------------------|
E|------3--------------------------------------------------------------------|

Breakdown B:

e|--1---3-------3---1---3----------------------------------------------------|
B|--3---3---1---3---3---3---1------------------------------------------------|
G|--2---0---0---0---2---0---0---1--------------------------------------------|
D|------0---2---0-------0---2---2--------------------------------------------|
A|------2---3---2-------2---3---2--------------------------------------------|
E|------3-------3-------3----------------------------------------------------|

Chorus:
Am7
e|------5--------------------------------------------------------------------|
B|------5-------------------3-3------3---------------------------------------|
G|------5-------------------2-2------2---------------------------------------|
D|------5---7-5h7p5----------------------------------------------------------|
A|------7-----------7--------------------------------------------------------|
E|--5---5---------------2-2-----1-1------------------------------------------|

Live intro/outro*:
Asus E
e|--5-----5------5-----5------3-------3-------0-----0------------------------|
B|------5---5--------6---6----------3---3-----0-----0------------------------|
G|----5-------5----5-------5------4-----------2-----1------------------------|
D|--7------------7--------------5-----------2-2---2-2------------------------|
A|----------------------------5------------0--0--2--2------------------------|
E|--------------------------------------------0-----0------------------------|

Asus E
e|--5-----5-----3-------3-------0-----0--------------------------------------|
B|------5---5---------3---3-----0-----0--------------------------------------|
G|----5------5------4-----------2-----1--------------------------------------|
D|--7-------------5-----------2-2---2-2--------------------------------------|
A|--------------5------------0--0--2--2--------------------------------------|
E|------------------------------0-----0--------------------------------------|
*live intro is a cover of the main verse of Prince's "When Doves Cry"

The above lines are played in this order:

Live intro/outro: 4 times (plus the 1st line)
Intro: 3 times
Verse: 1 time
Breakdown A: 1 time
Chorus: 3 times
Bridge: 2 times
Verse: 1 time
Breakdown A: 1 time
Chorus: 1 time
Breakdown B: 1 time
Bridge: 3 times
Breakdown B: 1 time
Chorus: 3 times
Bridge: 3 times
Live intro/outro: 4 times (plus the 1st line)
(optional) Bridge: if you want to insert a solo. Play as long as you want.
Bridge: 3 times end on an E chord

Lyrics:

(live intro)

Why did you leave me here standing
Staring out at the cold
Maybe I'm just too damn empty
Maybe I'm just like my father, too poor
Maybe I'm just like my mother
She's never satisfied
Why do we scream at each other
This is what it sounds like
When doves cry
---------------------
Mysterious, blown in with the night
All this beauty captured in a frame
Visibly shaken, but never stirred
Drives them insane
I see the way she plays her men
And I know I've got to know her name

She's so beautifully broken
Shaped by the wind
Dangerously twisted
Here I go again

I see the way she cast her spell
It's like drowning in moonlight
Discards them she's done
They're lost in her twilight
I watch her move from star to star
And I wonder why, why it feels so right

She's so beautifully broken
You can barely see the flaw
Especially from a distance
Which is always how I fall

Why do I fall for the dangerous ones?
The ones that never learned to let go
And why do I lie to myself
And pretend that I can break her
When she's already been so

Beautifully broken

Why do I fall for the dangerous ones?
The ones that don't know how to let go
And why do I lie to myself
And pretend that I could break her
When she's already been so

Beautifully broken
Shaped by the wind
Dangerously twisted
Here I go again
Here I go again
------------------------
(live outro)

Why did you leave me here standing
Staring out at the cold
Maybe I'm just too damn empty
Maybe I'm just like my father, too poor
Maybe I'm just like my mother
She's never satisfied
Why do we scream at each other
This is what it sounds like
When doves cry

Here I go again


| / slide up
| slide down
| h hammer-on
| p pull-off
| ~ vibrato
| + harmonic
| x Mute note
===============================================================================

ACORDES PARA GUITARRA

PIANO UKELELE


COMENTARIOS

Aún no hay comentarios,

¡escribe el primero!

Escribe una pregunta, duda o comentario sobre esta canción, te responderemos a la brevedad.

Las más tocadas de Gov't Mule

Toca una Canción al Azar de Gov't Mule