Dont Step On The Grass Sam (Acordes)

Gov't Mule

Subida por Johnasr

Compartir


Imprimir FAQ
+A
-A

Texto

Desplazamiento

Transportador

Color de Fondo

Herramientas

TAMAÑO
TONALIDAD
+A
+ (F4)
-A
- (F2)
Dont Step on the Grass Sam

G---------7-9------------------------------------------|
D-----5-6----------------------------------------------|
A--5-7-------------5-7-5-------------------------------|
E--------------5-7-------7--5-5-3----------------------|

G---------7-9------------------------------------------|
D-----5-6----------------------------------------------|
A--5-7-------------5-7-5-------------------------------|
E--------------5-7-------7--5-5-3----------------------|

This song was originally done by Steppenwolf and this tab works for their version as well.

HERRAMIENTAS ACORDESWEB:


LETRA DE LA CANCIÓN:

Ver la letra sola (sin acordes)

DESCARGAR PDF / IMPRIMIR CANCIÓN



ACORDES PARA GUITARRA

PIANO UKELELE


TOP 20: Las más tocadas de Gov't Mule