Thorazine Shuffle (Acordes)

Gov't Mule

Full Álbum: Dose (1998)
Subida por Josemarin2009

Compartir


Imprimir FAQ
+A
-A

Texto

Desplazamiento

Transportador

Color de Fondo

Archivos

-A
+A
This is from live versions so it may not be perfect. Awesome groove and fun to play. Tab 
rhythmically integrated, listen to the song while you practice.

Standard tuning

G|--------------|
D|-----------9--|
A|-----5-7-9----|
E|--7-----------|

Intro/verse: (Repeat the below groove)

|------------------------------------------------------------------|
|----------------------------9--9--9----------------------------9--|
|--7-7-5-7h8-7p5-------5-7-9----7--7--5-7h8-7p5-----------5-7-9----|
|----------------7-7-7--------------------------7p5-7-7-7----------|

Verse into Chorus:

................."Just let it go..."
|-------------------------------------|-------------------------------|
|----------------------------9--9--9--|-------------------------------|
|--7-7-5-7h8-7p5-------5-7-9----7--9--|--5-7h8-7p5-7p5-7p5---5-7------|
|----------------7-7-7----------------|--------------------7-----0----|

............."Step right back and watch me now..."
----------------------------------------|
----------------------------------------|
-----------------------------7p5---5-7--|
--0-0--0-0--0-0--0-0--0-0--0----7-------|

......."I'll show you how it's done..."
-----------------------------|
-----------------------------|
--7---7---7----7p5---5-7-----|
----5---5---5-----7-----0----|

..."Stay right here with me now..."
--------------------------------------------|
-----------------------------0--------------|
-------------------------------2p0-2p0------|
--0-0--0-0--0-0--0-0--0-0--------------3-2--|

....."'Til the damage is done..."
------------------------|
-----4-2-0--------------|
--4--------4-2-0--------|
-----------------4-3-2--|


Back to verse groove, repeat...(Play the short section at the top first)

HERRAMIENTAS ACORDESWEB:


LETRA DE LA CANCIÓN:

Ver la letra sola (sin acordes)

DESCARGAR PDF / IMPRIMIR CANCIÓN



ACORDES PARA GUITARRA

PIANO UKELELE


TOP 20: Las más tocadas de Gov't Mule


Toca una Canción al Azar de Gov't Mule

Acordes

Cerrar

21.14


89