Me Trai Comigo

Gram

Acordes

Seu minuto, meu segundo (2006)
Subida por Abel


Más Versiones
Ver. 2 Ver. 3 Ver. 4 Ver. 5 Ver. 6

Cambiar Cifrado
Americano Latino

Cambiar Tonalidad
-1 +1

Partir Pantalla Imprimir FAQ

+A
-A
Mudar para Português

Ver solo la LETRA
Intro: G F
Riff 1:
( G )
E|----------------------------------------|
B|----------------------------------------|
G|----------------------------------------| (2x)
D|-----------4---------5---4--------------|
A|-------5--------5-----------------------|
E|---3------------------------------------|

Riff 2:
( F )
E|----------------------------------------|
B|----------------------------------------|
G|----------------------------------------| (2x)
D|-----------2---------3---2--------------|
A|-------3--------3-----------------------|
E|---1------------------------------------|

( G# F# )
E|----------------------------------------|
B|---4-----42/42-----9---975/7----4---|
G|----------------------------------------|
D|----------------------------------------|
A|----------------------------------------|
E|----------------------------------------|

G# F#
Tá tentando me dizer, vem e diz Eu já sei,
G# F#
Tá querendo me enganar, vai e faz Nem vou ver
G# F#
Tenho é pena quando sai triste assim, sem prazer
G# F#
Tô pensando em te ajudar
G#
Hoje vai, você vai ver
G# B A
Mas se você falhar, volta pra casa
G
Já tanto faz
D9
Vai me ver sorrindo
Em
Pra te enfeitar
G
E me trai comigo
D5 G D5 G
E descanse em paz

G# F#
E não bote a culpa em mim, tenha dó, faz o seu
G# F#
Não desista agora não fica em pé, você vai mal
G# F#
O teu charme era fatal ou talvez só pra mim?
G# F#
Tô pensando em te ensinar
G#
Vai por mim, você vai bem
G# B
E se nada funcionar
A
Volta pra casa
G
Ja tanto faz
D9
Vai me ver sorrindo
Em
Pra te estancar
G
E me trai comigo
D5 G D5 G
E me deixa em paz

D5
Fingir pra mim
G5
Que eu gosto mais

(Riff 1)
Riff Final:
E|-------------------------------------------|
B|-------------------------------------------|
G|---12-12-12-11-11-11-11/-5-5-5-4-4-4-4-----|
D|-------------------------------------------|
A|-------------------------------------------|
E|-------------------------------------------|

G5
E todos vão falar
F5
Dar nomes pra mim
G5
Votar minha fé
F5
Que eu sou o teu quintal
G5
Se alguém vier falar
F5
Não brigue por mim
G5
Só diga que sou
F5
Um problema seu

NUEVO FORO DE MÚSICA

¿Tienes alguna duda, consulta, pregunta, consejo o algo para compartir sobre esta canción?

¡Puedes abrir un hilo en el FORO para que la comunidad te ayude! Hacer una pregunta

ACORDES PARA GUITARRA

PIANO UKELELE
G
F
G#
F#
B
A
D9
Em
D5
G5
F5


Las más tocadas de Gram

G
F
G#
F#
B
A
D9
Em
D5
G5
F5