Parte de Mim

Gram

Acordes

Seu minuto, meu segundo (2006)
Subida por GRACE


Más Versiones
Ver. 2 Ver. 3 Ver. 4 Ver. 5 Ver. 6

Cambiar Cifrado
Americano Latino

Cambiar Tonalidad
-1 +1

Partir Pantalla Imprimir FAQ

+A
-A
Mudar para Português

Ver solo la LETRA
Intro: Bm

E|----------15--14--12------------15--14--10-
B|---10--12--------------10--12--------------
G|-------------------------------------------
D|-------------------------------------------
A|-------------------------------------------
E|-------------------------------------------

Em
Fomos tanto
A
Que sempre tinha gente aqui
Em
Pra ver de perto
D
O que alguém chamou de amor
Em
Que desmancha
A
E hoje a gente sabe bem
Em
A casa está vazia agora
D
E hoje fica sem você

G
Quando eu te enchi de razão
Em D A
Você me chamou de fraco, velho
G
Pegue o que tiver que pegar
Em
Mais o que quiser
D A
E parte de mim

G D
Parte de mim
A Em
Quer te ver feliz
G D
Parte de mim
A Em
Te expulsa e morre

Em
Foram tantas
A
As brigas me faziam rir
Em
Não era certo nem errado
D
Era o que devia ser
Em
E nos dias
A
Nas datas pra comemorar
Em
A gente não jurava mais nada
D
E só bebia pra esquecer

G
O que era lindo se foi
Em D A
Agora é normal e chato, um tédio
G
Pegue o que tiver que pegar
Em
Mais o que quiser
D A
E parte de mim

G D
Parte de mim
A Em
Quer te ver feliz
G D
Parte de mim
A Em
Te expulsa te perde

G D
Parte de mim
A Em
Quer te ver feliz
G D
Parte de mim
A Em
Te expulsa e morre

REPETE INTRO (Bm)

Riff verso final
(D/F#)
E|------------------------------------------x------------|
B|------------------------------------------3------------|
G|------------------------------------------2------------|
D|------------------------------------------0------------|
A|--------4----5--4---------4----5--4-------x------------|
E|-3-3-3----3--------3-3-3----3--------0----2------------|

Então fica assim
O último apaga a luz
Na porta que não range mais
Ouvi o barulho mesmo assim

NUEVO FORO DE MÚSICA

¿Tienes alguna duda, consulta, pregunta, consejo o algo para compartir sobre esta canción?

¡Puedes abrir un hilo en el FORO para que la comunidad te ayude! Hacer una pregunta

ACORDES PARA GUITARRA

PIANO UKELELE
Bm
Em
A
D
G
D/F#


Las más tocadas de Gram

Bm
Em
A
D
G
D/F#