Moonshine

Gram

Acordes

Gram (2003)
Subida por Agarciadrums


Más Versiones
Ver. 2 Ver. 3 Ver. 4 Ver. 5 Ver. 6

Cambiar Cifrado
Americano Latino

Cambiar Tonalidad
-1 +1

Partir Pantalla Imprimir FAQ

+A
-A
Mudar para Português

Ver solo la LETRA
Intr.: C#m A

na introdução são 3 guitarras
guitarra 1: base

guitarra 2:
e|----------------------------------------------------
B|----------------------------------------------------
G|----------------------------------------------------
D|----------------------------------------------------
A|12/7-12/7--(11/7-11/7-11/7-11/7-12/7-12/7-12/7-12/7)
E|----------------------------------------------------
repete o que tá entre parênteses até o fim da introdução

guitarra 3:
e|--------------12-12-12------------------------
B|--------16-------------16---------------------
G|9/11/13----13-------------13--13/9/11/13------
D|-----------------------------------------14/11
A|----------------------------------------------
E|----------------------------------------------
2x

C#m A
I´ll follow you up to the moon
C#m A
I know you´r there is at the fool
F#m B7
But when i try to fly
C#m
I don´t have a wing as you
A F#m B7
Your light shine on me, inciting me

Intr.

C#m A
I was alone then you arose
C#m A
Your smell of herbs was like a dope
F#m B7
Your words are songs for me
C#m
My soul born again for you
A F#m B7
I will bring you back from the moon


Vocalização: C#m A F#m C5

I´ll follow you up to the moon
I know you´r there is at the fool
I was alone then you arose
Your smell of herbs was like a dope
(I´ll bring you back from the moon)
(Moonshine)

NUEVO FORO DE MÚSICA

¿Tienes alguna duda, consulta, pregunta, consejo o algo para compartir sobre esta canción?

¡Puedes abrir un hilo en el FORO para que la comunidad te ayude! Hacer una pregunta

ACORDES PARA GUITARRA

PIANO UKELELE
C#m
A
F#m
B7
C5


Las más tocadas de Gram

C#m
A
F#m
B7
C5