One More Stitch
Green River
Acordes

Subida por Dantefirme
Álbum: Rehab Doll ( 1988)



Cambiar Cifrado
Americano Latino

Cambiar Tonalidad
-1 +1

Partir Pantalla Imprimir FAQ

+A
-A

itl help you play it.

(intro)
e:----------------------------------------|
b:----------------------------------------|
g:--------0-------------------------------|
d:-----2----2----------0------0-----0-----|
a:--2---------2------0-----0-----0--------|
E:0-----------------3-----2-----1---------|

e:-----------------------------------------|
b:-----------------------------------------|
g:--------0---------------0------0----0----|
d:-----2----2----------0------0-----0------|
a:--2---------2------1-----2-----3---------|
E:0----------------------------------------|


chorus (bit after 'Before she breaks down')
(chorus)
e:--------------------------------------------------------------------------------|
b:--------------------------------------------------------------------------------|
g:--------------------------------------------------------------------------------|
d:------------------------------------------------------------0---------0-------0-|
a:--1--2-----------1---3--1------------1--2-----------------0---------0-------0---|
E:0--------------0-------------------0--------------------3---------2-------1-----|

then this part is played again but theres a few extra notes put in.

now for the chords!
(chords)
e:-------------------------------------------------|
b:-------------------------------------------------|
g:---3--9--3-----10--9--3----3--9--3----10--4--3--|
d:2--3--9--3--2--10--9--3-2--3--9--3-2--10--4--3--|
a:2--1--7--1--2--8---7--1-2--1--7--1-2--8---2--1--|
E:0-----------0-----------0----------0-------------|


now back to the chorus bit

then there comes a kick ass solo

from all i can work out it revolves around this

e:--------------------------------------------------------------------------------|
b:--------------------------------------------------------------------------------|
g:--------------------------------------------------------------------------------|
d:2---------------------------------------------------------------7777-8888-9999--|
a:2---------9--7--9--7----101010-999-88-7-----------9--7--9--7--------------------|
E:0-------------------------------------------------------------------------------|

after that there's a distorted version of the chords and it ends


hope this was helpful, as this was my first tab.



need any help, email me at *

ACORDES PARA GUITARRA

PIANO UKELELE


COMENTARIOS

Aún no hay comentarios,

¡escribe el primero!

Escribe una pregunta, duda o comentario sobre esta canción, te responderemos a la brevedad.

Las más tocadas de Green River

Toca una Canción al Azar de Green River