Swallow My Pride
Green River
Acordes

Subida por Materick
Álbum: Come On Down ( 1985)



Cambiar Cifrado
Americano Latino

Cambiar Tonalidad
-1 +1

Partir Pantalla Imprimir FAQ

+A
-A
Good Song Off "Dry As A Bone/Rehab Doll" 

Intro: W/ Distortion ( Riff A )

e|----------------------------|
B|----------------------------|
G|------2-----------2-4-4p2-0-| A--2
D|--------4-2-4---------------| Play This Twice Then Switch F# (2-4 powerchord) with E powerchord- E--0
A|--4-4---------4-4-----------| And Play Twice More.
E|--2-2---------2-2-----------|

Follows Into:

( Riff B )
e|--------------------------------------------|
B|--------------------------------------------|
G|--------------------------------------------|
D|--------------------------------------------|
A|--4-4-4-4-4-4-4-7-7-7-7-7-7-7-9-9-9-9-9-9-9-|
E|--2-2-2-2-2-2-2-5-5-5-5-5-5-5-7-7-7-7-7-7-7-|

e|--------| e|--------|
B|--------| B|--------|
G|--------| Repeat Twice G|--------| Repeat Twice
D|--------| D|--------|
A|--4/7-4-| A|--4/7-3-|
E|--2/5-2-| E|--2/5-0-|


Back Into Riff B, Leads Into Riff A

Thats All, I'll tab the solo later...
corrections:*

ACORDES PARA GUITARRA

PIANO UKELELE


COMENTARIOS

Aún no hay comentarios,

¡escribe el primero!

Escribe una pregunta, duda o comentario sobre esta canción, te responderemos a la brevedad.

Las más tocadas de Green River

Toca una Canción al Azar de Green River