This Town
Green River
Acordes

Subida por mario12
Álbum: Dry as a Bone / Rehab Doll ( 1990)



Cambiar Cifrado
Americano Latino

Cambiar Tonalidad
-1 +1

Partir Pantalla Imprimir FAQ

+A
-A
(intro)
E|-----------------------------------------|
B|-----------------------------------------|
G|-----------------------------------------|
D|2----------------------------------------|
A|2----------------------------------------|
E|0----------------------------------------|

(riff 1 - 8x)
E|------------------------------------|
B|------------------------------------|
G|--------7-------------------5-7-0---|
D|9-9-5-7---7-5-------9-9-5-7---------|
A|7-7-----------------7-7-------------|
E|------------------------------------|

(riff 2 - 6x)
E|----------------------------------------------------|
B|----------------------------------------------------|
G|9-9-9-9--8-8-7-7--------------7---------------5-7-0-|
D|9-9-9-9--8-8-7-7----9-9-5-7-5---7-----9-9-5-7-------|
A|7-7-7-7--6-6-5-5----7-7---------------7-7-----------|
E|----------------------------------------------------|

(riff 3)
E|---------------------------------------------------------|
B|---------------------------------------------------------|
G|---------------------------------------------------------|
D|12-12-x-12-12-x-9-9-x-9-9-x-7-7-x-7-7-x-1010--9-9-x x 2-|
A|10-10-x-10-10-x-7-7-x-7-7-x-5-5-x-5-5-x-8-8-x-7-7-x------|
E|---------------------------------------------------------|

(riff 2)

(riff 3)

(solo)

E|------------------------------------------------------------------|
B|------------------------------------------------------------------|
G|15(mega)15--15(bend)15--15(bend)15--15(bend)15-15-14-12-10--------|
D|------------------------------------------------------------------|
A|------------------------------------------------------------------|
E|------------------------------------------------------------------|

E|------------------------------------------------|
B|------------------------------------------------|
G|10-10-10-11-10-10-10-12-10-10-10-15-14-12-14-12-| (2x)
D|------------------------------------------------|
A|------------------------------------------------|
E|------------------------------------------------|

E|--------------------------------------|
B|--------------------------------------|
G|14-15---------------------------------|
D|--------------------------------------|
A|--------------------------------------|
E|--------------------------------------|

(riff 1)

(riff 2)

(riff 3)

(riff 1)

ACORDES PARA GUITARRA

PIANO UKELELE


COMENTARIOS

Aún no hay comentarios,

¡escribe el primero!

Escribe una pregunta, duda o comentario sobre esta canción, te responderemos a la brevedad.

Las más tocadas de Green River

Toca una Canción al Azar de Green River