Bad Hair Day
Holly Tree
Acordes

Subida por Samuelmolina
Álbum: Running Out of Sense ( 1998)


Más Versiones
Ver. 2 Ver. 3 Ver. 4 Ver. 5 Ver. 6

Cambiar Cifrado
Americano Latino

Cambiar Tonalidad
-1 +1

Partir Pantalla Imprimir FAQ

+A
-A
Mudar para Português
Intro Bass:
G:|-------------------------------------------------|
D:|-------------------------------------------------|
A:|-------------------------6-6-6-6-6-6-6-6-431---|
E:|-4-4-4-4-4-4-1-1-1-1-1-1-----------------------4-|

Intro Guitar:
e|----------------------------------------------------------|
B|----------------------------------------------------------|
G|-----------------------------8-8-8-8-8-8-8-8-8-8-8-8-8-8--|
D|---6-6-6-6-6-6--3-3-3-3-3-3--8-8-8-8-8-8-8-8-8-8-8-8-8-8--|
A|---6-6-6-6-6-6--3-3-3-3-3-3--6-6-6-6-6-6-6-6-6-6-6-6-6-6--|
E|---4-4-4-4-4-4--1-1-1-1-1-1-------------------------------|

e|--------------------------------------------------------------------|
B|--------------------------------------------------------------------|
G|--8/7/6-6-6-6-6-6-6--8-8-8-8-8-8--6-6-6-6-6-6-6-6--8-8-8-8-8-8-8-8--|
D|--8/7/6-6-6-6-6-6-6--8-8-8-8-8-8--6-6-6-6-6-6-6-6--8-8-8-8-8-8-8-8--|
A|--6/5/4-4-4-4-4-4-4--6-6-6-6-6-6--4-4-4-4-4-4-4-4--6-6-6-6-6-6-6-6--|
E|--------------------------------------------------------------------|

e|----------------------------|----------------------------------------------|
B|----------------------------|----------------------------------------------|
G|--6-6-6-6-6-6-6-8-8-8-8-8-8-|------------------------6-6-6-6-6-6--3-3--5-5-|
D|--6-6-6-6-6-6-6-8-8-8-8-8-8-|-6-6-6-6-6--3-3-3-3-3-3-6-6-6-6-6-6--3-3--5-5-|
A|--4-4-4-4-4-4-4-6-6-6-6-6-6-|-6-6-6-6-6--3-3-3-3-3-3-4-4-4-4-4-4--1-1--3-3-|
E|----------------------------|-4-4-4-4-4--1-1-1-1-1-1-----------------------|

Part 1:
e|---------------------------------------------------------|
B|---------------------------------------------------------|
G|----------------------------8-8-8-8-8-8-8-8-8-8-8-8-8-8--|
D|--6-6-6-6-6-6--3-3-3-3-3-3--8-8-8-8-8-8-8-8-8-8-8-8-8-8--|
A|--6-6-6-6-6-6--3-3-3-3-3-3--6-6-6-6-6-6-6-6-6-6-6-6-6-6--|
E|--4-4-4-4-4-4--1-1-1-1-1-1-------------------------------|

-------------------------------------------------------------------------------

ACORDES PARA GUITARRA

PIANO UKELELE


COMENTARIOS

Aún no hay comentarios,

¡escribe el primero!

Escribe una pregunta, duda o comentario sobre esta canción, te responderemos a la brevedad.

Las más tocadas de Holly Tree

Toca una Canción al Azar de Holly Tree