Hey Stop It
Holly Tree
Acordes

Subida por Zaitung
Álbum: Running Out of Sense ( 1998)


Más Versiones
Ver. 2 Ver. 3 Ver. 4 Ver. 5 Ver. 6

Cambiar Cifrado
Americano Latino

Cambiar Tonalidad
-1 +1

Partir Pantalla Imprimir FAQ

+A
-A
Mudar para Português
Intro: 

e|-----|---------------------------|-----|------------------|
B|-----|---------------------------|-----|------------------|
G|--6--|6/5/6/5/6/5/6/5/6/5/6/5----|--6--|-6-6-6-6----------|
D|--6--|---------------------------|--6--|-6-6-6-6-4-4-4-4--|
A|--4--|---------------------------|--4--|-4-4-4-4-4-4-4-4--|
E|-----|---------------------------|-----|---------2-2-2-2--|
|----- p.m -----|

e|----------------------------------------------|
B|----------------------------------------------|
G|--6-6-6-6-6------------------------6-6-6-6-6--| 2x
D|--6-6-6-6-6--4-4-4-4-4--6-6-6-6-6--6-6-6-6-6--|
A|--4-4-4-4-4--4-4-4-4-4--6-6-6-6-6--4-4-4-4-4--|
E|-------------2-2-2-2-2--4-4-4-4-4-------------|

Parte 1:

e|----------------------------------------------|
B|----------------------------------------------|
G|--6-6-6-6-6------------------------6-6-6-6-6--|
D|--6-6-6-6-6--4-4-4-4-4--6-6-6-6-6--6-6-6-6-6--|
A|--4-4-4-4-4--4-4-4-4-4--6-6-6-6-6--4-4-4-4-4--|
E|-------------2-2-2-2-2--4-4-4-4-4-------------|
You don't seem happy, you seem so sad
What have you done? why do you look so bad?
Don't mind stupid things, don't care abou them
Forget what makes you sick or shomething like that

Refrão:

e|------------------------------|
B|------------------------------|
G|--6-6-6----------------6-6-6--|
D|--6-6-6--4-4-4--6-6-6--6-6-6--| 2x
A|--4-4-4--4-4-4--6-6-6--4-4-4--|
E|---------2-2-2--4-4-4---------|
Stop it, stop it all
Come with me just don't get fucking down

Parte 2:

e|----------------------------------------------|
B|----------------------------------------------|
G|--6-6-6-6-6------------------------6-6-6-6-6--|
D|--6-6-6-6-6--4-4-4-4-4--6-6-6-6-6--6-6-6-6-6--|
A|--4-4-4-4-4--4-4-4-4-4--6-6-6-6-6--4-4-4-4-4--|
E|-------------2-2-2-2-2--4-4-4-4-4-------------|
You're just like they want, you're just one more
While you are suffering they are just having fun
So do what you want to, even if you brake the rules
Don't be controled by others just be you

Refrão:

Parte 3:

e|----------------------------------------------|
B|----------------------------------------------|
G|--6-6-6-6-6------------------------6-6-6-6-6--| 2x
D|--6-6-6-6-6--4-4-4-4-4--6-6-6-6-6--6-6-6-6-6--| (Uma com e outra sem p.m)
A|--4-4-4-4-4--4-4-4-4-4--6-6-6-6-6--4-4-4-4-4--|
E|-------------2-2-2-2-2--4-4-4-4-4-------------|
|---------------- p.m --------------------|

Fim:

e|------------------------------|
B|------------------------------|
G|--8-8-8----------------8-8-8--| 2x
D|--8-8-8--6-6-6--8-8-8--8-8-8--|
A|--6-6-6--6-6-6--8-8-8--6-6-6--|
E|---------4-4-4--6-6-6---------|
Stop it, stop it all
Come with me just don't get fucking down.

ACORDES PARA GUITARRA

PIANO UKELELE


COMENTARIOS

Aún no hay comentarios,

¡escribe el primero!

Escribe una pregunta, duda o comentario sobre esta canción, te responderemos a la brevedad.

Las más tocadas de Holly Tree

Toca una Canción al Azar de Holly Tree