Neurotic Mind (Acordes)

Holly Tree

Subida por Moddlp

Compartir


Cambiar Cifrado
Americano Latino

Cambiar Tonalidad
-1 +1
Imprimir FAQ
+A
-A

Texto

Desplazamiento

Transportador

Color de Fondo

Archivos

Mudar para Português

TONALIDAD, TAMAÑO, CIFRADO, SCROL.

Nos renovamos: Ahora puedes cambiar TODO haciendo clic en ICONO de la Guitarra () que aparece en la parte inferior de esta página.


LETRA CON ACORDES

       Dbm              
So you come talk to me
F#m     Abm          Dbm
Tell me all your theories
F#m            Abm     Dbm
And stuffs you say you did
F#m          Abm                Dbm   F#m Abm
I'll just pretend but I won't believe you.NO


ref:
         F#m
Neurotic mind
           Abm
I trust no one
                              Dbm
it's paranoia and it was born with me
         F#m
Neurotic mind
          Abm                        Dbm
I feel so happy and this way I wanna be
         F#m
Neurotic mind
       Abm               Dbm            Bbm
If you ask me if I trust you I'll say I do.
   F#m                      Abm        
Do I have reason to say you suck
               C Dbm C Dbm C Dbm C Dbm
and you're not true?


             Dbm
No matter if it's my best friend
F#m     Abm        Dbm
I'd say everyone includes
F#m   Abm               Dbm
In my list don't want a clue
F#m        Abm     Dbm F#m Abm
I'll never believe you.NO


ref:
         F#m
Neurotic mind
           Abm
I trust no one
                              Dbm
it's paranoia and it was born with me
         F#m
Neurotic mind
          Abm                        Dbm
I feel so happy and this way I wanna be
         F#m
Neurotic mind
       Abm               Dbm            Bbm
If you ask me if I trust you I'll say I do.
   F#m                      Abm        
Do I have reason to say you suck
               C Dbm C Dbm C Dbm C Dbm
and you're not true?


solo guitarra (é em baixo mais pode ser tocado na guitarra):

e|-----------------------------------------------|
b|-----------------------------------------------|
g|-6-8-6-3----3-3-6-8-6-8-6-8-6-8-6-1----------1-|   2x
d|---------------------------------------4-3-4---|
a|-----------------------------------------------|
e|-----------------------------------------------|

e|---------------------------------------------------------------------------------------------------------------|
b|---------------------------------------------------------------------------------------------------------------|
g|-6-8-6-3----3-3-6-8-6-8-6-8-6-8-11-10-10-10-8-8-8-6-6-6-6-6-6-6-10-8-6-5-8-5/6-6-6-5/6-6-6-6-6-5/6-6-6-5/6-6-6-|
d|---------------------------------------------------------------------------------------------------------------|
a|---------------------------------------------------------------------------------------------------------------|
e|---------------------------------------------------------------------------------------------------------------|


Pt final:
         F#m   Abm
Neurotic mind ôooo
         C Dbm C Dbm C Dbm C Dbm
neurotic mind
         F#m   Abm
Neurotic mind ôooo
         Dbm
neurotic mind


solo final:

e|-----------------|
b|-----------------|
g|-8-8-8-6-------8-|
d|---------9-8-6---|
a|-----------------|
e|-----------------|

Video Clip de Neurotic Mind


ACORDES PARA GUITARRA

PIANO UKELELE
Dbm
F#m
Abm
Bbm
C


TOP 20: Las más tocadas de Holly Tree


Toca una Canción al Azar de Holly Tree

Acordes

Cerrar
Dbm
F#m
Abm
Bbm
C

10.06

x

450