Calabacitas Tiernas
Jaguares
Acordes

Subida por GRACE


Más Versiones
Ver. 2 Ver. 3

Cambiar Cifrado
Americano Latino

Cambiar Tonalidad
-1 +1

Partir Pantalla Imprimir FAQ

+A
-A
Apoyen al ROCK NACIONAL!!!
-interpretada por el mejor grupo del mundo,
y escrita por el gran Tin tan-
(cualquier tipo de comentarios son bienvenidos)

Este es el intro, esta medio raro y un poco rápido,
pero el chiste es agarrarle el ritmo.

Touc..touc..touc..taaauj........
e:-------------------------|
B:-------------------------|
G:-------------------------| (se repite 24 veces)
D:-------------------------|
A:-----------9--10---------|
E:----7--8-----------------|

Yo ya estoy convencido......de lo que a mi me pasa
e:-----------------------------------------------------------
B:-----------------------------------------------------------
G:--------8----10---11-11s0------------------------10s0----
D:----9-------------------------9--8--9-7H9---------10s0----
A:-----------------------------------------------------------
E:-----------------------------------------------------------

Que hay algo aquí ............... y es dentro de esta casa
e:-----------------------------------------------------------
B:-----------------------------------------------------------
G:--------8----10---11-11s0-------------------------10s0---
D:----9-------------------------9--8--9-7H9----------10s0---
A:-----------------------------------------------------------
E:-----------------------------------------------------------

Un espejo que habla una vida regalada
e:-----------------------------------------------------------
B:--------7--9--10------------6--8--9--9-10-9----------------
G:--------7--9--10------------6--8--9--9-10-9----------------
D:-----8-------------------7---------------------------------
A:-----------------------------------------------------------
E:-----------------------------------------------------------

Y mujeres y mujeres que son mi debilidad
e:-------------------------------------------------------
B:-----10-10-10------10-10-10---10--10--10-10-10---------
G:-----9--9--8-------9--9--8----8---9---8--9---8---------
D:-----10-10-9-------10-10-9----9---10--9--10--9---------
A:-------------------------------------------------------
E:-------------------------------------------------------

Nada me extrañaría que el espejo me hablara
e:-----------------------------------------------------------
B:-----------------------------------------------------------
G:--------8----10---11-11s0------------------------10s0----
D:----9-------------------------9--8--9-7H9---------10s0----
A:-----------------------------------------------------------
E:-----------------------------------------------------------




Ni me sorprendería que al rato me casara
e:--------------------------------------------
B:--------------------------------------------
G:--------8----10---11-11s0------------------ (viene el
D:----9-------------------------9--8--9-7H9--- 1er solo)
A:--------------------------------------------
E:--------------------------------------------

Vamonos Marcelo!!!!!!!!!!!!!!
e:-----------------------------------------------------------
B:-----------------------------------------------------------
G:-18(b^)-16-16-----------------------------------------------
D:-------------16H17-19-17-16s/17s14-13H14-13H14-13H14-13---
A:--------------------------------------------------------14-
E:-----------------------------------------------------------

e:-----------------------------------------------------------
B:-----------------------------------------------------------
G:-----------------------------------------------------------
D:----------17p16---18p17p16-14s0-------12H14-15-16p14-12br-
A:-17p15p14-------17---------------12H14---------------------
E:-----------------------------------------------------------

e:-----------------------------------------------------------
B:-----------------------------------------------------------
G:-----------------------------------------------------------
D:-11s/12--11s/12--10-10-10-10-9-9s/11H12--------------------
A:----------------------------------------11H12-12-13---14---
E:-----------------------------------------------------------

(al terminar el solo anterior el bajo hace un puente,
y la lira por su parte se avienta el acorde Bm)

pues si es que no te extrañe hablaremos un rato
e:-----------------------------------------------------------
B:-----------------------------10-10-10--10-10-10------------
G:--------8----10---11-11s0---9--9--8---9--9--8-------------
D:----9------------------------10-10-9---10-10-9-------------
A:-----------------------------------------------------------
E:-----------------------------------------------------------

Tu ya es tas enredado como un vil mentecato
e:-----------------------------------------------------------
B:-----------------------------10-10-10--10-10-10------------
G:--------8----10---11-11s0---9--9--8---9--9--8-------------
D:----9------------------------10-10-9---10-10-9-------------
A:-----------------------------------------------------------
E:-----------------------------------------------------------

Te crees ser empresario, y mueres por las piernas
e:-----------------------------------------------------------
B:--------7--9--10------------6--8--9--9-10-9----------------
G:--------7--9--10------------6--8--9--9-10-9----------------
D:-----8-------------------7---------------------------------
A:-----------------------------------------------------------
E:-----------------------------------------------------------

En otras condiciones calabacitas tiernas
e:-------------------------------------------------------
B:-----10-10-10------10-10-10---10--10--10-10-10---------
G:-----9--9--8-------9--9--8----8---9---8--9---8---------
D:-----10-10-9-------10-10-9----9---10--9--10--9---------
A:-------------------------------------------------------
E:-------------------------------------------------------

Así es que no te extrañe que el espejo te cante
e:-----------------------------------------------------------
B:-----------------------------X-10-10-X-X-10-10-X--(aqui
G:--------8----10---11-11s0---X--9-8--X-X--9-8--X-- lleva
D:----9------------------------X-10-9--X-X-10-9--X----palm
A:------------------------------------------------------mute)
E:-----------------------------------------------------------

Ni debe sorprenderte que te besen y te engañen
e:-----------------------------------------------------------
B:-----------------------------X-10-10-X-X-10-10-X--(aqui
G:--------8----10---11-11s0---X--9-8--X-X--9-8--X-- lleva
D:----9------------------------X-10-9--X-X-10-9--X----palm
A:------------------------------------------------------mute)
E:-----------------------------------------------------------

(al terminar el verso anterior el bajo hace un puente,
y la lira por su parte se avienta el acorde Bm,
seguido por el INTRO unas cuantas veces, Y...)

VAAMONOS CAARNAAAALES!!!!!!!!!!!!!!!!!!!!!!!!!!!!!!
e:-----------------------------------------------------------
B:--------11--------12-12-12---------11--------12-12-12s0---
G:-8s/10Br---8s/10Br---------8s/10br----8s/10br--------------
D:-----------------------------------------------------------
A:-----------------------------------------------------------
E:-----------------------------------------------------------

e:------------------------
B:------------------------
G:--12-11-12-14-12-11-12--
D:------------------------
A:------------------------
E:------------------------

e:-----------------------------------------------------------
B:--------11--------12-12-12---------11--------12-12-12s0---
G:-8s/10Br---8s/10br---------8s/10br----8s/10br--------------
D:-----------------------------------------------------------
A:-----------------------------------------------------------
E:-----------------------------------------------------------

e:-----------------------------------------------------------
B:11-----------12-12-11-------11-----12-12-12------11--121212
G:12-10H12-12s/13-13-12---10b^---10b^---------10b^---10b^----
D:-----------------------------------------------------------
A:-----------------------------------------------------------
E:-----------------------------------------------------------

e:---11-11----12----11-11----12------------------------------
B:8b^------8b^---8b^------8b^----15s/16-16------14----12-----
G:---------------------------------13s/14-----14----14----12-
D:-----------------------------------------------------------
A:-----------------------------------------------------------
E:-----------------------------------------------------------

e:---------------------------------------
B:10-10-10-12-------13----12----11---12--
G:---10-10-14b^--15----14----13---11-----
D:---------------------------------------
A:---------------------------------------
E:---------------------------------------

Pero hay que jalar juntos, pues somos carne y uña
e:--------------------------------------------
B:--------------------------------------------
G:--------8----10---11-11s0------------------
D:----9---------------------------------------
A:--------------------------------------------
E:--------------------------------------------

Consígueme unas nenas y te regalo una
e:--------------------------------------------
B:--------------------------------------------
G:--------8----10---11-11s0------------------
D:----9---------------------------------------
A:--------------------------------------------
E:--------------------------------------------

Pero hay que jalar juntos, pues somos carne y uña
e:--------------------------------------------
B:--------------------------------------------
G:--------8----10---11-11s0------------------
D:----9---------------------------------------
A:--------------------------------------------
E:--------------------------------------------


Consígueme unas nenas y te regalo unaaaa ahhh ahhh
e:----------------------|-----------|---------||-----------|
B:----------------------|°------10--|10------°||--11-------|
G:------8-10---11-11s0-|°9-------9-|8----8--°||-----------|
D:----9-----------------|-10-10-----|9--9---9-||-----------|
A:----------------------|-----------|---------||-----------|
E:----------------------|-----------|---------||-----------|
((efectos))
P(digamos qe es iwal qe H pero al reves
H(darle un martilleo a la cuerda, con el dedo
siguiente
Br(bivrato, qreo qee se escribe al reves
b^(estirar la cuerda hacia ti
(b^)bending armonico, golpeas la cuerpa con la pua
s/(deslizar el dedo sobre el traste hacia abajo
s(deslizar el dedo sobre el traste hacia arriba

dedicado para todos los aliados que no se dobalan
ante ninguna represion...


ACORDES PARA GUITARRA

PIANO UKELELE
B
D
E
A
G


COMENTARIOS

Aún no hay comentarios,

¡escribe el primero!

Escribe una pregunta, duda o comentario sobre esta canción, te responderemos a la brevedad.

Las más tocadas de Jaguares

Toca una Canción al Azar de Jaguares
B
D
E
A
G