Píntame (Acordes)

Jaguares

Full Álbum: 45 (2008)
Subida por Salguero07

Compartir


Cambiar Cifrado
Americano Latino

Cambiar Tonalidad
-1 +1
Imprimir FAQ
+A
-A

Texto

Desplazamiento

Transportador

Color de Fondo

Archivos

-A
+A
hola aqui les mando unas transcripciones de esta rola de
jaguares muy buena.

intro de teclado con la guitarra:  e----8--12--10-----
                                   b-10-----------10--
y luego este arpegio que acompaña
a la primera parte de "pintame de ese rojo..."

e--5----5------------------------------------------------------
B--------------8------8-------8--5----5----5---8-------8--------
G-5----------5------5-------5-------5-------------5-------5-----
D-7---7----7------7-------7--------------7-----------7-------7--
A-5---------------5--------------5-------5---------------------
E-5---------------5----------------------5---------------------

y lugo esta parte:


Cadd9            G
rescatame del demonio que arde en mi,

Cadd9             G                Em
abrasame que por dentro soy infeliz.


y despue se repite todo desde el arpegio.
y despues en el coro:

   G        Cadd9         Am7               Em
caminare mi vida entera hasta encontrar tu voz

   G        Cadd9         Am7               Em
caminare sobre los rios hasta llevarla al mar.


G    Cadd9     Am7       Em
ay,  ay, ay, ay, ay, ay, A

solo de teclado:

Cadd9  G  Cadd9  G  Em (hagan juego con estos tonos)

y se repite coro, termina con el intro.

bueno es todo espero que le sguste y que les sirba el
arpegio ne esta difcil es cuetion de acvomodar lo dedos
y darle duro. sale nos  bemos raza y que viva JAGUARES¡¡¡¡¡¡

   Am7     Cadd9
e--0---------3-------
B--1---------3-------
G--0---------0-------
D--2---------2-------
A--0---------3-------
E--0---------0-------


Video Clip de Píntame


ACORDES PARA GUITARRA

PIANO UKELELE
Cadd9
G
Em
Am7
A


TOP 20: Las más tocadas de Jaguares


Toca una Canción al Azar de Jaguares

Acordes

Cerrar
Cadd9
G
Em
Am7
A

07.58

x

98