Todo te da igual
Jaguares
Acordes

Subida por kongo
Álbum: Crónicas de un laberinto ( 2005)


Más Versiones
Ver. 2 Ver. 3 Ver. 4 Ver. 5 Ver. 6
+A
-A
Bueno esta canción es para Jorge, aqui la tienes.
Se la dedico a Jasmin, que seas muy feliz...
e|----------------3h5---------------3-5-----------------3h5-----------3-5-
B|------3h5-5-5---3h5-----3h5-5-5---3-5-------3h5-5-5---3h5---3h5-5-5-3-5-
G|------4h5-5-5-----------4h5-5-5-------------4h5-5-5---------4h5-5-5-----
D|------------------------------------------------------------------------
A|--0-0---------0-----0-0---------0-------0-0---------0----0-0-------0----
E|------------------------------------------------------------------------

e|----------------3h5---------------3-5-----------------3h5-----------3-5-
B|------3h5-5-5---3h5-----3h5-5-5---3-5-------3h5-5-5---3h5---3h5-5-5-3-5-
G|------4h5-5-5-----------4h5-5-5-------------4h5-5-5---------4h5-5-5-----
D|------------------------------------------------------------------------
A|--0-0---------0-----0-0---------0-------0-0---------0----0-0-------0----
E|------------------------------------------------------------------------
Hoy durmieron a Fernando el sistema lo suicidó
e|----------------3h5---------------3-5-----------------3h5-----------3-5-
B|------3h5-5-5---3h5-----3h5-5-5---3-5-------3h5-5-5---3h5---3h5-5-5-3-5-
G|------4h5-5-5-----------4h5-5-5-------------4h5-5-5---------4h5-5-5-----
D|------------------------------------------------------------------------
A|--0-0---------0-----0-0---------0-------0-0---------0----0-0-------0----
E|------------------------------------------------------------------------
ayer se desangró Sofia, en la banqueta junto a un oficial
e|----------------3h5---------------3-5-----------------3h5-----------3-5-
B|------3h5-5-5---3h5-----3h5-5-5---3-5-------3h5-5-5---3h5---3h5-5-5-3-5-
G|------4h5-5-5-----------4h5-5-5-------------4h5-5-5---------4h5-5-5-----
D|------------------------------------------------------------------------
A|--3-3---------3-----3-3---------3-------0-0---------0----0-0-------0----
E|------------------------------------------------------------------------
hay sobredosis en la calle la adolescencia ya se perdió
e|----------------3h5---------------3-5-----------------3h5-----------3-5-
B|------3h5-5-5---3h5-----3h5-5-5---3-5-------3h5-5-5---3h5---3h5-5-5-3-5-
G|------4h5-5-5-----------4h5-5-5-------------4h5-5-5---------4h5-5-5-----
D|------------------------------------------------------------------------
A|--0-0---------0-----0-0---------0-------0-0---------0----0-0-------0----
E|------------------------------------------------------------------------
los ancianos siguen fuertes, siguen mirando de frente a ti.
e|----------------3h5---------------3-5-----------------3h5-----------3-5-
B|------3h5-5-5---3h5-----3h5-5-5---3-5-------3h5-5-5---3h5---3h5-5-5-3-5-
G|------4h5-5-5-----------4h5-5-5-------------4h5-5-5---------4h5-5-5-----
D|------------------------------------------------------------------------
A|--3-3---------3-----3-3---------3-------0-0---------0----0-0-------0----
E|------------------------------------------------------------------------
Am Dm Am Dm
Y hay mujeres que no lloran, hay fantasmas que rescatar.
Am G Dm Em
y hay quien lo tiene todo y no tiene salvación
Am G Dm Em
y hay quien estando solo, solo quiere recordar.
E5 D#5 D5 C#5 D5
Y todo te da igual, te da igual.
B|--------------------------------
G|------------9--8-------7--6--7--
D|--------------------------------
A|------------7--6-------5--4--5--
E|--------------------------------
E5 D#5 D5 C#5 D5
Y todo te da igual, te da igual.
B|--------------------------------
G|------------9--8-------7--6--7--
D|--------------------------------
A|------------7--6-------5--4--5--
E|--------------------------------
El hambre está cobrando vidas, habrá santuarios y redención
e|----------------3h5---------------3-5-----------------3h5-----------3-5-
B|------3h5-5-5---3h5-----3h5-5-5---3-5-------3h5-5-5---3h5---3h5-5-5-3-5-
G|------4h5-5-5-----------4h5-5-5-------------4h5-5-5---------4h5-5-5-----
D|------------------------------------------------------------------------
A|--0-0---------0-----0-0---------0-------0-0---------0----0-0-------0----
E|------------------------------------------------------------------------
mañana estará en la carcel quien defienda la verdad
e|----------------3h5---------------3-5-----------------3h5-----------3-5-
B|------3h5-5-5---3h5-----3h5-5-5---3-5-------3h5-5-5---3h5---3h5-5-5-3-5-
G|------4h5-5-5-----------4h5-5-5-------------4h5-5-5---------4h5-5-5-----
D|------------------------------------------------------------------------
A|--3-3---------3-----3-3---------3-------0-0---------0----0-0-------0----
E|------------------------------------------------------------------------
Am Dm Am Dm
Esa verdad que duele, es la forma de combatir
Am G Dm Em
y hay quien estando vivo, ya no vive, ya no ve
Am G Dm Em
y habrá quien de la nada vuelva justo al poder.
E5 D#5 D5 C#5 D5
Y todo te da igual, te da igual.
B|--------------------------------
G|------------9--8-------7--6--7--
D|--------------------------------
A|------------7--6-------5--4--5--
E|--------------------------------
E5 D#5 D5 C#5 D5
Y todo te da igual, te da igual.
B|--------------------------------
G|------------9--8-------7--6--7--
D|--------------------------------
A|------------7--6-------5--4--5--
E|--------------------------------
E5 D#5 D5 C#5 D5
Y todo te da igual.
B|---------------------------------
G|------------9--8-------7/9/6--7--
D|---------------------------------
A|------------7--6-------5/7/4--5--
E|---------------------------------
E5 D#5 D5 C#5 D5
Y todo te da igual.
B|---------------------------------
G|------------9--8-------7/9/6--7--
D|---------------------------------
A|------------7--6-------5/7/4--5--
E|---------------------------------
Solo final:
B|--------------------------------------
G|--9/128-12/1511/12--9/128-12/1511/12--
D|--------------------------------------
A|--7/106-10/139-/12--7/106-10/139-/12--
E|--------------------------------------


ACORDES PARA GUITARRA

PIANO UKELELE
Am
Dm
G
Em
E5
D#5
D5
C#5


COMENTARIOS

Aún no hay comentarios,

¡escribe el primero!

Escribe una pregunta, duda o comentario sobre esta canción, te responderemos a la brevedad.

Las más tocadas de Jaguares

Toca una Canción al Azar de Jaguares
Am
Dm
G
Em
E5
D#5
D5
C#5