Hay amores que matan
Jaguares
Acordes

Subida por Naaraytz
Álbum: Crónicas de un laberinto ( 2005)


Más Versiones
Ver. 2 Ver. 3 Ver. 4 Ver. 5 Ver. 6
+A
-A
verso:
G---------------------------------
D---------------7---7/9-----------
A-------------7---7------8--7-----
E---5---5-7/8---------------------

G---------------------------
D---------------7-----------
A-------------7---7-9--8----
E---5---5-7/8---------------

Hay amores que esconden un suicidio
Hay amores que calman la calma
Hay amores que nunca se conocen
Hay amores que sangran el camino.

Hay amores que elevan a los santos
Hay amores que lloran su dicha
Hay amores que niegan su nacimiento
pero hay uno que es letal, es el tuyo.

coro:
G-----|----|----|---------|------
D-----|----|----|---------|------
A-----|-5*-|----|-8-8---7*|------
E---5*|----|-7*-|-----7---|------

G-----|----|----|---------|------
D-----|----|----|---------|------
A-----|-8*-|----|-8-8---7*|------
E---5*|----|-7*-|-----7---|------

Hay amores que matan
ay amor el tuyo mata
Hay amores que matan
pero el mio no resucita

verso:
Hay amores que perdonan a su judas
Hay amores que reviven y caminan
Hay amores que del alma no se separan
pero hay uno que es letal, es el tuyo

coro:
Hay amores que matan
ay amor el tuyo mata
Hay amores que matan
pero el mio no resucita

final:
G-----|----|----|---------|------
D-----|----|----|---------|------
A-----|-5*-|----|-8-8---7*|------
E---5*|----|-7*-|----7----|------

saludos a lucero,leon,omar,yeye,vic,
rudy,ivan,verde, pako, rosa y los que falten
del 121. (bap)


ACORDES PARA GUITARRA

PIANO UKELELE


COMENTARIOS

Aún no hay comentarios,

¡escribe el primero!

Escribe una pregunta, duda o comentario sobre esta canción, te responderemos a la brevedad.

Las más tocadas de Jaguares

Toca una Canción al Azar de Jaguares