Compartir


Cambiar Cifrado
Americano Latino

Cambiar Tonalidad
-1 +1
Imprimir FAQ
+A
-A

Texto

Desplazamiento

Transportador

Color de Fondo

Archivos

TONALIDAD, TAMAÑO, CIFRADO, SCROL.

Nos renovamos: Ahora puedes cambiar TODO haciendo clic en ICONO de la Guitarra () que aparece en la parte inferior de esta página.


LETRA CON ACORDES

Intro:

e||------------------------------------  |
B||------------------------------------  |
G||--4---4-3-2--x--9-9--6-7-7----------  | x2
D||--4---4-3-2--x--9-9--6-7-7----------  |
A||--2---2-1-0--x--7-7--4-5-5----------  |
E||------------------------------------  |


B                   A
Tengo los sentidos puestos en vos
E                   D
Y es lo que me causa fascinación
B                   A
No quiero promesas no quiero amor
E                   D
Dame adrenalina dame pasión.

B                 A
Vamos a vivir al máximo hoy,
E                 D
Yo no pago culpas por mi elección,
B               A
Es tan aburrida la perfección,
E                D
Dame adrenalina, dame pasión.

B            A
Dame pasión, dame pasión,
E                  D
No quiero promesas, no quiero amor.
B            A
Dame pasión, dame pasión,
E                  D
Dame adrenalina dame pasión.

Intro X2

B                     A
No caigo en la trampa de la ilusión,
E                    D
Solo llevo sangre en mi corazón,
B                 A
Basta de palabras vivo de acción,
E                D
Dame adrenalina, dame pasión.

B            A
Dame pasión, dame pasión,
E                  D
No quiero promesas, no quiero amor.
B            A
Dame pasión, dame pasión,
E                  D
Dame adrenalina dame pasión.


(Intervalo loco, sujeto a modificaciones)

e||--------------------------------------------   |
B||--------------------------------------------   |
G||--4--7-7--6--7--6-7-6-------9-9--7----------   | x2
D||--4--7-7--6--7--6-7-6----9--9-9--7--9-7-9-7~   |
A||--2--5-5--4--5--4-5-4----9--7-7--5----------   |
E||-------------------------7------------------   |


B            A
Dame pasión, dame pasión,
E                  D
No quiero promesas, no quiero amor.
B            A
Dame pasión, dame pasión,
E                  D
Dame adrenalina dame pasión.


e||--------------------------------------------   |
B||--------------------------------------------   |
G||--4--7-7--6--7--6-7-6-------9-9--7----------   | x2
D||--4--7-7--6--7--6-7-6----9--9-9--7--9-7-9-7~   |
A||--2--5-5--4--5--4-5-4----9--7-7--5----------   |
E||-------------------------7------------------   |


B            A                       |
Dame pasión, dame pasión,            |
E                  D                 |
No quiero promesas, no quiero amor.  |   x2
B            A                       |
Dame pasión, dame pasión,            |
E                  D                 |
Dame adrenalina dame pasión.         |



El intervalo no me convencio todavia , pero por lo
demás creo que esta aunque sea decente jaja
Dedicada a mi novia, flopa quiero pasion (?


Video Clip de Dame pasión


ACORDES PARA GUITARRA

PIANO UKELELE
B
A
E
D


TOP 20: Las más tocadas de Juana la Loca


Acordes

Cerrar
B
A
E
D

09.39

x

63