Compartir


Cambiar Cifrado
Americano Latino

Cambiar Tonalidad
-1 +1
Imprimir FAQ
+A
-A

Texto

Desplazamiento

Transportador

Color de Fondo

Archivos

TONALIDAD, TAMAÑO, CIFRADO, SCROL.

Nos renovamos: Ahora puedes cambiar TODO haciendo clic en ICONO de la Guitarra () que aparece en la parte inferior de esta página.


LETRA CON ACORDES

intro: riff con base C G F G# C Am G

 C       G         F
Dijo que no podía más
      G#      C       Am    G
y se fue de acá sin mirar atrás.
 C          G              F
su cuerpo vuela entre las olas
         G#      C        Am     G     
que se lleva el mar y no vuelve más.

F       G   
  Venime a buscar
F       G
  la fuga ideal
F             G     C G F G# C Am G
  hacia el mejor lugar.

 C       G          F
Bajo la luz del universo
     G#    C       Am      G
admirandote, te moves tambien.
 C        G           F
Hay otra vida y otro tiempo
      G#    C         Am      G
otra dimensión, yo la vi con vos.

F       G  
  Venime a buscar
F       G
  la fuga ideal
F              G       C    Am 
  hacia el mejoooor  lugar
F             G     C   Am
  hacia el mejor lugar
F             G     C
  hacia el mejor lugar
F             G     C
  hacia el mejor lugar.


 RIFF
1--------------------------------------------3-4-3---
2--5-5-5-6-5---3-3-----------1-1---------4-4-------6-
3--5-5-------7-4-4-4-5-4-2---2-2-5-7-5---5-5---------
4--5-5---------5-5---------5-3-3-------5-6-6---------
5----------------------------------------------------
6----------------------------------------------------

1----------------------------------------------
2--5-5-5-6-5-------------------3---5---6---6-8-
3--5-5-------7-5-----5---5-3-4---4---7---7-----
4--5-5-----------5-7---7-----------------------
5----------------------------------------------
6----------------------------------------------


Video Clip de El mejor lugar


ACORDES PARA GUITARRA

PIANO UKELELE
C
G
F
G#
Am


TOP 20: Las más tocadas de Juana la Loca


Acordes

Cerrar
C
G
F
G#
Am

11.34

x

109