Compartir


Cambiar Cifrado
Americano Latino

Cambiar Tonalidad
-1 +1
Imprimir FAQ
+A
-A

Texto

Desplazamiento

Transportador

Color de Fondo

Archivos

TONALIDAD, TAMAÑO, CIFRADO, SCROL.

Nos renovamos: Ahora puedes cambiar TODO haciendo clic en ICONO de la Guitarra () que aparece en la parte inferior de esta página.


LETRA CON ACORDES

el tema empiesa con el bajo y una distorsion rara asiendo:

--------------------------------------------------------------------
--------------------------------------------------------------------
--------------------------------------------------------------------
-7-7-7-7-7-7-7-7--5-5-5-5-5-5-5-5--0-0-0-0-0-0-0-0-0-0-0-0-0-0-0-0--
|       B       | |      A       | |              E               |


eso lo ase dos veses, despues arrana la guitarra asiendo asi:


------------------------------------------------------------------
------4--------2-----2/5-5-5-5-5-asta desvaneserse----------------
----4---4----2---2------------------------------------------------
------------------------------------------------------------------
-2---------0------------------------------------------------------
------------------------------------------------------------------

 B         A           E

2 veses


B5 A5  E5   B5      A5       E5
aamaaanesi, en otro sueño comprendi
B5          A5          E5
que era imposible despertar
B5         A5          E5
algo me arrastra mas alla

ase el punteo con la guitarra otra ves 2 veses

B5  A5  E5 B5        A5       E5
te conosi, en el planeta carmesi
B5         A5            E5
y eras distinta a los demas
B5           A5          E5
no, no me intentes regresar

ase el punteo de la guitarra otra ves 2 veses
y despues se escucha como una rafaga de viento
y rodrigo empiesa a cantar sobre eso

al fin parti, desde el planeta carmesi

donde en las noches brillaran

empiesan de vuelta los instrumentos y dice
B5 A5       E5
satelites de amor
B5 A5       E5
satelites de amor
B5 A5       E5
satelites de amor
B5 A5       E5
satelites de amor

despues la guitarra ase asi:

----------------------------------------------------
---4---4---2---2--2/5-5-5-5-5-asat desvaneserse-----
-----4-------2--------------------------------------
----------------------------------------------------
-2-------0------------------------------------------
----------------------------------------------------
2 veses

y despues con la rafaga de viento rodrigo dice

satelites de amor

satelites de amor

y fin

espero q la entiendan y la puedan tocar.

aclaracion: mi5 es asi:  60 52 42 3x 2x 1x

ALGUNA DUDA MANDENME UN MAIL O AGREGENME AL MSN A [email protected]


Video Clip de Planeta carmesí


ACORDES PARA GUITARRA

PIANO UKELELE
B
A
E
B5
A5
E5


TOP 20: Las más tocadas de Juana la Loca


Acordes

Cerrar
B
A
E
B5
A5
E5

14.13

x

99