Cerrando bien mis ojos
La Forma
Acordes

Subida por cantaor


Más Versiones
Ver. 2

Cambiar Cifrado
Americano Latino

Cambiar Tonalidad
-1 +1

Partir Pantalla Imprimir FAQ

+A
-A


Ver solo la LETRA
EsT TeMa S WenO Y tiEnE baStAnTe
PuNXe En LaS tokaDas Ahi Se LaS DjO abEr Si
Les AyuDa D AlGo...

C5 B5 A5 G5 F5 G5
e|------------------------------------------|
B|-----------------------------------13-12--|
G|-5/7/9--5/7/9--5/7/9--5/7/9---12---X--x---|
D|-x/x/x--x/x/x--x/x/x--x/x/x---x----10-9---|
A|-3/5/7--3/5/7--3/5/7--3/5/7---10----------|
E|------------------------------------------|

C5 B5 A5 G5 F5 G5
e|-------------------------------------------|
B|-------------------------------------------|
G|-5/7/9--5/7/9--5/7/9/7--5/7/9---12--14--16-|
D|-x/x/x--x/x/x--x/x/x/x--x/x/x---x---x---x--|
A|-3/5/7--3/5/7--3/5/7/5--3/5/7---10--12--14-|
E|-------------------------------------------|

C5 B5 A5
Cerrando bien mis ojos!! Encontré un lugar…
G5
En donde no tendría que luchar…
F5 G5 C5
sino tan solo dejarme llevar…
G5 C5
en donde no agan mil preguntas
B5 A5
el porque estoy acá
G5
dibuje mi planeta mi mundo
F5 G5
y me lo hicieron destrozar

C5 G5

F5 C5 G5
Este mundo SE AKABO,
F5 C5 G5
lo dejo todo y me voy con dios!!
C5
Y YO QUE MIERDA HAGO AQUI!
B5 A5
si no tengo a donde ir!!
G5
Sin oficio y sin ningún calzado!!
F5 G5
Lucho y vuelvo a morir!!

C5 G5

F5 C5 G5
se k llorarian por mi
F5 C5 G5
toda gente de por ahi
A5 G5 C5
y q me importa al fin
A5 G5 C5
Yo ya me decidí
A5 G5
OH OH OH y ahora me voy a dormir!!

C5 B5 A5 G5 F5 G5
e|------------------------------------------|
B|-----------------------------------13-12--|
G|-5/7/9--5/7/9--5/7/9--5/7/9---12---X--x---|
D|-x/x/x--x/x/x--x/x/x--x/x/x---x----10-9---|
A|-3/5/7--3/5/7--3/5/7--3/5/7---10----------|
E|------------------------------------------|

C5 B5 A5 G5 F5 G5
e|-------------------------------------------|
B|-------------------------------------------|
G|-5/7/9--5/7/9--5/7/9/7--5/7/9---12--14--16-|
D|-x/x/x--x/x/x--x/x/x/x--x/x/x---x---x---x--|
A|-3/5/7--3/5/7--3/5/7/5--3/5/7---10--12--14-|
E|-------------------------------------------|

C5
Siento frió en las manos!!
B5 A5
SIENTO todo nublado!!
G5
Viendo mí vida en polvo
F5 G5
Ahora estoy tan calmado!!
A5
Tengo frió en las manos!!
G5 F5 G5
Alguien me esta llamando!!
F5 G5
Ya se cierran mis ojos..!!
F5 G5
Se cierran mis ojos...!!
F5
Se cierran mis ojos....!!

X) X) X) X) X) X) X) X) X) X) X) X) X) X) X) X) X) X) X) X) X) X)
X) X) X) X) X) X) X) X) X) X) X) X) X) X) X) X) X) X) X) X) X) X)
X) X) X) X) X) X) X) X) X) X) X) X) X) X) X) X) X) X) X) X) X) X)
X) X) X) X) X) X) X) X) X) X) X) X) X) X) X) X) X) X) X) X) X) X)
X) X) X) X) X) X) X) X) X) X) X) X) X) X) X) X) X) X) X) X) X) X)


ACORDES PARA GUITARRA

PIANO UKELELE
C5
B5
A5
G5
F5


COMENTARIOS

Aún no hay comentarios,

¡escribe el primero!

Escribe una pregunta, duda o comentario sobre esta canción, te responderemos a la brevedad.

Las más tocadas de La Forma

Toca una Canción al Azar de La Forma
C5
B5
A5
G5
F5