Hijos del destino
La Forma
Acordes

Subida por Carimonteserin


Más Versiones
Ver. 2

Cambiar Cifrado
Americano Latino

Cambiar Tonalidad
-1 +1

Partir Pantalla Imprimir FAQ

+A
-A
Empieza con un apagado:

e-----------------------
b-----------------------
g------7-7-7-7-7-7-7----
d------7-7-7-7-7-7-7----
a------5-5-5-5-5-5-5----
E-----------------------

D5 B5
Las cosas pasan cuando no te las esperas
G5 A5
y buscas un momento a solas para ponerte a pensar
D5 B5
y piensas que hice bien o en que estuve mal
G5 A5
y no encuentras respuestas y solamente quieres gritar

Y la primera guitarra, termina con esto:

e-------------------
b------10--8--7--8--
g-------------------
d-------------------
a-------------------
E-------------------

D5 B5
y golpeas la pared y te pones a llorar
G5 A5
y buscas un amigo porque temes a la soledad
D5 B5
recuerdas todo bien pero a la mitad
G5 A5
te olvidas de algunas cosas que valen en realidad

CORO

G5 A5 G5 A5
nadie es culpable de lo que pudo suceder
G5 A5
somos hijos del destino

Aquí lo hacen más rápido (Escuchen bien los tiempos):

D5 B5 G5 A5
y eso que.. y eso queeeeee y eso queee eeeeee (4 veces)

Solo: Acompaña la segunda guitarra con estos acordes:

D5 - B5 - G5 - A5 - G5 - B5 - G5 - A5


e-----------------------------------------------------------
b---------5-7-8-7-5---8-7-5--------8-7-5---8-7-5----7-7-7v--
g------7------------7--------7------------7------7----------
d-----------------------------------------------------------
a-----------------------------------------------------------
E-----------------------------------------------------------

Aquí es recontra rápido

e---------------------------------------------10-9-7----10-9-7----
b--10-8-7-10-8-7-10-8-7-10-8-7-10-8-7-10-8-7---------10--------10-
g-----------------------------------------------------------------
d-----------------------------------------------------------------
a-----------------------------------------------------------------
E-----------------------------------------------------------------

e--------------------------------------------------------
b--10-8-7-10-8-7-10-8-7-10-8-7-10-8-7--------10-8-7-5-7--
g--------------------------------------------------------
d--------------------------------------------------------
a--------------------------------------------------------
E--------------------------------------------------------

Luego viene:

B5 - G5 - A5 - F#5 (X2)


Después la primera guitarra juega con los acordes base (puntea)
aunque es opcional y la segunda los rasguea: D5 - B5 - G5 - A5

e----------------------------------------------------------------------
b----------------------------------------------------------------------
g----------------------------------------------------------------------
d--------7---7---7------4--4---4---4-----------------------------------
a-5-5--5---5---5----2-2--2---2---2--------5---5---5--5------7--7--7--7-
E-------------------------------------3-3---3---3---3---5-5---5--5--5--


Cuando comienza a cantar, solo marquen la nota una vez

D5 B5
En la magia de la vida todo tiene solución
G5 A5
y elegir la más correcta podría causarte confusión

Aquí ya entran rasgueando con fuerza

D5 B5
y no quieres ver la luna y no quieres ver el sol
G5 A5
solo cierra los ojos y olvídate de la razón

CORO

G5 A5 G5 A5
nadie es culpable de lo que pudo suceder
G5 A5
somos hijos del destino

Aquí lo hacen más rápido (Escuchen bien los tiempos):

D5 B5 G5 A5
y eso que.. y eso queeeeee y eso queee eeeeee (4 veces)

FINAL:

B5 A5 G5
Ha pasado mucho tiempo
B5 A5 G5
ambos hemos madurado más
B5 A5 G5
tal vez quieras no acordarte
B5 A5 G5
de lo que hubo mucho tiempo atrás

Y esto acompaña la primera guitarra (lento) con :

e--------------------------------------------------------
b----------8v---7--------8v---7--------8v---7------------
g---7---6----------7---6---------7---6----------7-6-4v---
d--------------------------------------------------------
a--------------------------------------------------------
E--------------------------------------------------------


ACORDES PARA GUITARRA

PIANO UKELELE
D5
B5
G5
A5
F#5


COMENTARIOS

Aún no hay comentarios,

¡escribe el primero!

Escribe una pregunta, duda o comentario sobre esta canción, te responderemos a la brevedad.

Las más tocadas de La Forma

Toca una Canción al Azar de La Forma
D5
B5
G5
A5
F#5