Somos 1 y somos 1000
La Forma
Acordes

Subida por ricardodelgado11


Más Versiones
Ver. 2 Ver. 3

Cambiar Cifrado
Americano Latino

Cambiar Tonalidad
-1 +1

Partir Pantalla Imprimir FAQ

+A
-A


Ver solo la LETRA
La cancion empieza con un arpegio

Intro

1era Guitarra


e|-------------------------------------------------------|
B|--17p8-8-8s10--10s12--12--12s17---17s18----------------|
G|-------------------------------------------------------|
D|-------------------------------------------------------|
A|-------------------------------------------------------|
E|-------------------------------------------------------|

2da Guitarra

F5 A5 G5
e|------------------------------------------------------------|
B|------------------------------------------------------------|
G|-----0-------------0--------------0------------0------------|
D|-------0---0---------0----0---------0----0-------0----0-----|
A|---3-----3------3-------3------7-------7-----5------5-------|
E|-1------------1--------------5-------------3----------------|



1era Guitarra


e|-------------------------------------------------------|
B|-------------------------------------------------------|
G|-1212121212--------------------------------------------|
D|-xxxxxxxxxx--------------------------------------------|
A|-1010101010--------------------------------------------|
E|-------------------------------------------------------|

Mientras que la
2da Guitarra solo mutear en sol5

FA5 LA5 SOL5
PM ------------
e|------------------------|
B|------------------------|
G|------------------------|
D|--333---777----5555-----| X2
A|--333---777----5555-----|
E|--111---555----3333-----|

Luego de esto vienen las octavas ya antes de entrar al primer verso
Arriba de las octavas les pongo el acompañamiento de la 2da guitarra
Chequen los mutes de la 2da guitarra se los pongo pero por siacaso

F5
e|------------------------------------------------|
B|------------------------------------------------|
G|-1212121212---141414---121212--1616161717-------|
D|-xxxxxxxxxx---xxxxxx---xxxxxx--xxxxxxxxxx-------|
A|-1010101010---121212---101010--1414141515-------|
E|------------------------------------------------|

C5 G5
e|-----------------------------------------|
B|-----------------------------------------|
G|-----12121212--10-9---12121212--10-9-----|
D|-----xxxxxxxx--x--x---xxxxxxxx--x--x-----|
A|-----10101010--8--7---10101010--8--7-----|
E|-----------------------------------------|


FA5
PM ------------
e|------------------------------------------------|
B|------------------------------------------------|
G|-1212121212---141414---121212--1616161717-------|
D|-xxxxxxxxxx---xxxxxx---xxxxxx--xxxxxxxxxx-------|
A|-1010101010---121212---101010--1414141515-------|
E|------------------------------------------------|

C5 G5
e|-----------------------------------------|
B|-----------------------------------------|
G|-----12121212--10-9---12121212--10-9--5--|
D|-----xxxxxxxx--x--x---xxxxxxxx--x--x--x--|
A|-----10101010--8--7---10101010--8--7--3--|
E|-----------------------------------------|

Todo esto com Mute

F5 C5 G5
Nunca es tarde o realidad nunca sabre, si lo es o no lo es
F5
23 años despues y en medio de la destrucion


C5 G5
estas aqui parada frente a mi...
e|-------------------------------------|
B|-------------------------------------|
G|--5-4-5-7----------------------------|
D|--x-x-x-x----------------------------|
A|--3-2-3-5----------------------------|
E|-------------------------------------|

F5 D5
habian tantas voces que me cantaron que hiba a ser asi
C5
buscando un sitio y renacer...
G5
buscando un sitio y renacer...
F5
Tan simple y tan perfecto
D5 C5
tan grande y tan complejo y tan sutil.

Somos uno y somos mil...
G5 F5
Somos uno y somos mil...

Estas octavas van acompañadas en todo el verso

F5 D5 C5 G5
e|----------------------------------------|
B|----------------------------------------|
G|---555---777---999-101010---99--1010----|
D|---xxx---xxx---xxx-x-x-x----xx--x-x-----|
A|---333---555---777-8-8-8----77--8-8-----|
E|----------------------------------------|
F5 D5 C5 G5
e|----------------------------------------|
B|----------------------------------------|
G|---555---777---9999-777--5--------------|
D|---xxx---xxx---xxxx-xxx--x--------------|
A|---333---555---7777-555--3--------------|
E|----------------------------------------|

Aca Te quedas en F5

G5 C5 G5
Esto es un vicio y no kiero salir...
C5 G5
e|-------------------------------------|
B|-------------------------------------|
G|--555-444--77---55-------------------|
D|--xxx-xxx--xx---xx-------------------|
A|--333-222--55---33-------------------|
E|-------------------------------------|

F5 C5 G5
mañana no kiero perderlo, prefiero morir
C5 G5
e|-------------------------------------|
B|-------------------------------------|
G|--555-777--999--101010---------------|
D|--xxx-xxx--xxx--x-x-x----------------|
A|--333-555--777--8-8-8----------------|
E|-------------------------------------|


Aca estas notas van acompañadas de las octavas del comienzo

A5
tanto tiempo al fin paso
F5 C5 G5
y en un instante estas tan cerca a mi
A5
Mañana quiero despertar
F5 C5 G5
sin preocuparme si no estas aqui si no estas aqui

e|------------------------------------------------|
B|------------------------------------------------|
G|-1212121212---141414---121212--1616161717-------|
D|-xxxxxxxxxx---xxxxxx---xxxxxx--xxxxxxxxxx-------|
A|-1010101010---121212---101010--1414141515-------|
E|------------------------------------------------|

e|-----------------------------------------|
B|-----------------------------------------|
G|-----12121212--10-9---12121212--10-9-----|
D|-----xxxxxxxx--x--x---xxxxxxxx--x--x-----|
A|-----10101010--8--7---10101010--8--7-----|
E|-----------------------------------------|

e|------------------------------------------------|
B|------------------------------------------------|
G|-1212121212---141414---121212--1616161717-------|
D|-xxxxxxxxxx---xxxxxx---xxxxxx--xxxxxxxxxx-------|
A|-1010101010---121212---101010--1414141515-------|
E|------------------------------------------------|

e|-----------------------------------------|
B|-----------------------------------------|
G|-----12121212--10-9---12121212--10-9--5--|
D|-----xxxxxxxx--x--x---xxxxxxxx--x--x--x--|
A|-----10101010--8--7---10101010--8--7--3--|
E|-----------------------------------------|

Lo mismo esto acompañado con las octavas de abajo

F5
habian tantos dioses...
D5
que me insultaban para verme al fin
C5
tomando un pisco y renacer...
G5
tomando un pisco y renacer...
F5
tan simple y tan perfecto
D5 C5
tan grande y tan complejo y tan sutil.

Somos uno y somos mil...
G5
Somos uno y somos mil...

F5 D5 C5 G5
e|----------------------------------------|
B|----------------------------------------|
G|---555---777---999-101010---99--1010----|
D|---xxx---xxx---xxx-x-x-x----xx--x-x-----|
A|---333---555---777-8-8-8----77--8-8-----|
E|----------------------------------------|
F5 D5 C5 G5
e|----------------------------------------|
B|----------------------------------------|
G|---555---777---9999-777--5--------------|
D|---xxx---xxx---xxxx-xxx--x--------------|
A|---333---555---7777-555--3--------------|
E|----------------------------------------|

Aca va el intro denuevo Chequen los tiempos
no es igual que los del comienzo
Pero las notas son las mismas

F5 A5 G5
Esto es un vicio y no kiero salir...

F5 A5 G5
e|------------------------------------------------------------|
B|------------------------------------------------------------|
G|-----0-------------0--------------0------------0------------|
D|-------0---0---------0----0---------0----0-------0----0-----|
A|---3-----3------3-------3------7-------7-----5------5-------|
E|-1------------1--------------5-------------3----------------|

F5 A5 G5
mañana no kiero perderlo, prefiero morir....

F5 A5 G5
e|------------------------------------------------------------|
B|------------------------------------------------------------|
G|-----0-------------0--------------0-------------------------|
D|-------0---0---------0----0---------0----0------0-----------|
A|---3-----3------3-------3------7-------7-----2--------------|
E|-1------------1--------------5-------------3----------------|


F5
e|------------------------------------------------|
B|------------------------------------------------|
G|-1212121212---141414---121212--1616161717-------|
D|-xxxxxxxxxx---xxxxxx---xxxxxx--xxxxxxxxxx-------|
A|-1010101010---121212---101010--1414141515-------|
E|------------------------------------------------|

C5 G5
e|-----------------------------------------|
B|-----------------------------------------|
G|-----12121212--10-9---12121212--10-9-----|
D|-----xxxxxxxx--x--x---xxxxxxxx--x--x-----|
A|-----10101010--8--7---10101010--8--7-----|
E|-----------------------------------------|


FA5
PM ------------
e|------------------------------------------------|
B|------------------------------------------------|
G|-1212121212---141414---121212--1616161717-------|
D|-xxxxxxxxxx---xxxxxx---xxxxxx--xxxxxxxxxx-------|
A|-1010101010---121212---101010--1414141515-------|
E|------------------------------------------------|

C5 G5
e|-----------------------------------------|
B|-----------------------------------------|
G|-----12121212--10-9---12121212--10-9--5--|
D|-----xxxxxxxx--x--x---xxxxxxxx--x--x--x--|
A|-----10101010--8--7---10101010--8--7--3--|
E|-----------------------------------------|

F5 D5
habian tantas voces que me cantavan que hiba a ser asi
C5
buscando un sitio y renacer...
G5
buscando un sitio y renacer...
F5
Tan simple y tan perfecto
D5 C5
tan grande y tan complejo y tan sutil.

Somos uno y somos mil...
G5 F5
Somos uno y somos mil...

F5 D5 C5 G5
e|----------------------------------------|
B|----------------------------------------|
G|---555---777---999-101010---99--1010----|
D|---xxx---xxx---xxx-x-x-x----xx--x-x-----|
A|---333---555---777-8-8-8----77--8-8-----|
E|----------------------------------------|
F5 D5 C5 G5 F5
e|----------------------------------------|
B|----------------------------------------|
G|---555---777---9999-777--5--------------|
D|---xxx---xxx---xxxx-xxx--x--------------|
A|---333---555---7777-555--3--------------|
E|----------------------------------------|

Wenoo y aca termina Creo que esta casi Perfecto Un Saludo
Para la gente de Mecanica de La catolica (Aqp) Y Apoyen La Escena
Cualquier cosa me escriben ... salu2


ACORDES PARA GUITARRA

PIANO UKELELE
F5
A5
G5
F5
A5
G5
C5
D5


COMENTARIOS

Aún no hay comentarios,

¡escribe el primero!

Escribe una pregunta, duda o comentario sobre esta canción, te responderemos a la brevedad.

Las más tocadas de La Forma

Toca una Canción al Azar de La Forma
F5
A5
G5
F5
A5
G5
C5
D5