Los Molinos
La Fuga
Acordes

Subida por Ljorti66


Más Versiones
Ver. 2 Ver. 3 Ver. 4 Ver. 5

Cambiar Cifrado
Americano Latino

Cambiar Tonalidad
-1 +1

Partir Pantalla Imprimir FAQ

+A
-A


Ver solo la LETRA
Intro:

DO#5
DO#5 FA#5 x4
SI5 DO#5

DO#5
busco tus labios calientes
MI5 LA5
que mienten mas que besan
DO#5
los que se rifa la gente

e |-----------||
B |-----------||
G |-----------||
D |-7h9-6-----||
A |-----------||
E |-----------||

DO#5
quiero tu abrazo suicida
MI5 LA5
aunq sepa que es mentira
DO#5
y me cueste la ruina

LA5 SI5
busco un tragito urgente
MI5 DO#5 LA5
y una lengua de serpiente
SI5
busco un porque


LA5 MI5 SI5 DO#5
me llaman ,los bares ya sabes los detalles
LA5 SI5 DO#5
nunca se me hace tarde

LA5 MI5 SI5 DO#5
naufrago... vomito... por que te necesito
LA5 SI5 DO#5 SI-DO#5
como el aire a los molinos

DO#5
de garito en garito,
MI5 LA5
se que no encontrare
DO#5
lo que ahora necesito

e |---------------||
B |---------------||
G |-4-4--4-4------||
D |-----7-7-6-----||
A |---------------||
E |---------------||

DO#5
pero la casa sigue vacia
MI5 LA5 DO#5
me quemaba el sofá la tele me aburria

LA5 SI5
y me lanze a la calle
MI5 DO#5 LA5
en busca de un detalle
SI5
busco un tal vez

LA5 MI5 SI5 DO#5
me llaman ,los bares ya sabes los detalles
LA5 SI5 DO#5
nunca se me hace tarde

LA5 MI5 SI5 DO#5
naufrago... vomito... por que te necesito
LA5 SI5 DO#5
como el aire a los molinos

Solo: DO#5 LA5 DO#5

e |-9p8p7-9-9-9-9-9b11rb9-9--9p8p7-9-9-9-9-14b16-9-9--||
B |------9------------------------9-------------------||
G |---------------------------------------------------||
D |---------------------------------------------------||
A |---------------------------------------------------||
E |---------------------------------------------------||

e |-9p8p7-9-9-7-----------------------------------------------------||
B |------9------9-8-7--7-7-7vr-----------------------------12----12-||
G |-------------------9-9------9-9-9-9-9-9-9-9-9-9-11-11-11b13-11b13||
D |-----------------------------------------------------------------||
A |-----------------------------------------------------------------||
E |-----------------------------------------------------------------||

e |-------------------------------||
B |-------------------------------||
G |-11b13-11-9-9---------9--------||
D |--------------11-9-11---11-10--||
A |-------------------------------||
E |-------------------------------||

e |--14b16-------------------------------------------------------||
B |--------12b14rb12-9-------------------------------------------||
G |---------------------11b13rb11-9---9-11-9-11-11b13rb11-9------||
D |---------------------------------11----------------------11---||
A |--------------------------------------------------------------||
E |--------------------------------------------------------------||

En esta estrofa ai una segunda guitarra que da las siguientes notas(*)

DO#5 *Do#m
ahora la noche agoniza
MI5 *Mi LA5 *La
yo estoy en lo mejor

DO#5 (Agudos)Mi FA# SOL#
el barman tiene prisa

DO#5
mal amiga madrugada
MI5 LA5
llenas mis horas de hiel
DO#5
y congelas mi cama

LA5 SI5
y vuelvo a las andadas
MI5 DO#5 LA5
a mis malas mañanas
SI5
al mar humor


LA5 MI5 SI5 DO#5
me llaman ,los bares ya sabes los detalles
LA5 SI5 DO#5
nunca se me hace tarde

LA5 MI5 SI5 DO#5
naufrago... vomito... por que te necesito
LA5 SI5 DO#5
como el aire a los molinos


LA5 MI5 SI5 DO#5
me llaman ,los bares ya sabes los detalles
LA5 SI5 DO#5
nunca se me hace tarde

LA5 MI5 SI5 DO#5
naufrago... vomito... por que te necesito
LA5 SI5 DO#5
como el aire a los molinos


Para dudas, sugerencias, errores:[email protected]


ACORDES PARA GUITARRA

PIANO UKELELE
C#5
F#5
B5
E5
A5
B
F#
G#


COMENTARIOS

Aún no hay comentarios,

¡escribe el primero!

Escribe una pregunta, duda o comentario sobre esta canción, te responderemos a la brevedad.

Las más tocadas de La Fuga

Toca una Canción al Azar de La Fuga
C#5
F#5
B5
E5
A5
B
F#
G#