c ▷ MIGUEL: (La Fuga) Acordes para Guitarra, Piano & Ukelele

Miguel (Acordes)

La Fuga

Subida por Mariuxi

Compartir


Imprimir FAQ
+A
-A

Texto

Desplazamiento

Transportador

Color de Fondo

Archivos

-A
+A
La Fuga, Calles de Papel, este temazo, Miguel,
es imperdible del impacto de este grupazo hispano...
La Fuga, Calles de Papel, su último disco en España...

Mi aporte consiste en el punteo del tema, el
resto ya estaba publicado y sólo merecía ciertos ajustes


Guitarra 1
DO - LAm - DO - LAm

Guitarra 2

e|------------------------------------------------------------
b|------------------------------------------------------------
g|---5-4-5---5-4-5---9-7-4---9-7-4---5-4-5---5-4-5---9-7-4---7
d|------------------------------------------------------------
a|------------------------------------------------------------
e|------------------------------------------------------------


DO                       SOL
Miguel duerme en la calle,
      LAm                   MIm
Juan XXIII, por la tarde lo verás
DO
tocando en la principal.

                     SOL
Su guitarra siempre fiel,
              LAm
duerme junto a él
                   MIm         DO
lo que saca pa´ comer y pa´ beber.

e|----------------------------
b|----------------------------
g|---5-4-5---5-4-5---9-7-4---7
d|----------------------------
a|----------------------------
e|----------------------------

FA              SOL
Canta un corazón,
                          DO
Que está cansado de vivir
                LAm       MIm
Siempre fuera de control,
FA              SOL
Busca la ilusión
                          DO
Que le vuelva a hacer reír
          LAm         MIm
Solo tiene una canción

DO                  SOL
Si hace frío abrígate
                    LAm
con cartones y la piel
                MIm
arrugada sabe que

DO                 SOL
es el precio de nacer
            LAm
lejos del dinero,
                 MIm
tan lejos del poder


Guitarra 1
DO - LAm - DO - LAm - FA - SOL - LAm - MIm

Guitarra 2

e|-----------------------------------  ----------------------10----------
b|-----10-12------------12-13-12-----  ----10-12----------------13-12----
g|--12-------12-----12---------------  --12--------12-----12-------------
d|-----------------------------------  ----------------------------------
a|-----------------------------------  ----------------------------------
e|-----------------------------------  ----------------------------------

e|----------10-12---10------------------10-12---10-----------------------
b|--12-13-----------------13--12---13--------------13--12----------------
g|-----------------------------------------------------------------------
d|-----------------------------------------------------------------------
a|-----------------------------------------------------------------------
e|-----------------------------------------------------------------------

e|------10--12--13--12--10--8--10--12--13--12----------------------------
b|--13-------------------------------------------------------------------
g|-----------------------------------------------------------------------
d|-----------------------------------------------------------------------
a|-----------------------------------------------------------------------
e|-----------------------------------------------------------------------


FA                SOL
Canta un corazón,
                       DO
Que está cansado de vivir
            LAm      MIm
Siempre fuera de control,
FA              SOL
Busca la ilusión
                          DO
Que le vuelva a hacer reír
         LAm         MIm
Solo tiene una canción

DO                SOL
Ayer Miguel se fue
                     LAm
a su entierro no fue ningún rey
                 MIm
nadie lloró por él.

DO                   SOL
Su guitarra se calló
                    LAm
pero su voz aún la puedo oír
                MIm
por la calle mayor


FA                SOL
Canta un corazón,
                       DO
Que está cansado de vivir
            LAm      MIm
Siempre fuera de control,
FA              SOL
Busca la ilusión
                          DO
Que le vuelva a hacer reír
         LAm         MIm
Solo tiene una canción

FA                    SOL
Canta un corazón… (se repite)


Fin: Do - Lam - Do - Lam

Elegancia sonora, La Fuga, Calles de Papel,
Miguel, temazo, de su último disco, que lo disfrutes...
el poder de la cultura de la música de la magia del
rock and roll en el idioma de Cervantes...

-----  -   -  -  -     -----
-      -   -  -  -     -
-      -----  -  -     ----
-      -   -  -  -     -
-----  -   -  -  ----- -----


Video Clip de Miguel


ACORDES PARA GUITARRA

PIANO UKELELE
C
Am
G
Em
F


TOP 20: Las más tocadas de La Fuga


Toca una Canción al Azar de La Fuga

Acordes

Cerrar
C
Am
G
Em
F

21.11

x

109